Petri Pentatoninen & Blues

Chords

01234567891011121314151617181920212223
E
B
G
D
A
E
B
0 1 2 3 4 5 6 7 8 9 10 11 12 13 14 15 16 17 18 19 20 21 22 23
(/) Slide Up  (\) Slide Down  (h) Hammer On  (p) Pull Off  (b) Bend (r) Release (v) Vibrato

Stave 1:

E|---------------------------------------------12--15--|--------------------------------0--3--|--
B|-------------------------------------12--15----------|--------------------------0--3--------|--
G|-----------------------------12--14------------------|--------------------0--2--------------|--
D|---------------------12--14--------------------------|--------------0--2--------------------|--
A|-------------12--14----------------------------------|--------0--2--------------------------|--
E|-----12--15------------------------------------------|--0--3--------------------------------|--

Stave 2:

E|--------------------------------------------------12--15--|--------------------------------------0--
B|------------------------------------------12--15----------|--------------------------------0--3-----
G|------------------------------12--14--15------------------|-----------------------0--2--3-----------
D|----------------------12--14------------------------------|-----------------0--2--------------------
A|----------12--13--14--------------------------------------|--------0--1--2--------------------------
E|--12--15--------------------------------------------------|--0--3-----------------------------------

							http://www.guitartabcreator.com
Instruments
{"title":"Petri Pentatoninen & Blues","strings":[[["_",null,null,".",".",".",".",".",".",".",".",".",".",12,15,"|",".",".",".",".",".",".",".",".",".",".",0,3,"|"],["_",null,null,".",".",".",".",".",".",".",".",12,15,".",".","|",".",".",".",".",".",".",".",".",0,3,".",".","|"],["_",null,null,".",".",".",".",".",".",12,14,".",".",".",".","|",".",".",".",".",".",".",0,2,".",".",".",".","|"],["_",null,null,".",".",".",".",12,14,".",".",".",".",".",".","|",".",".",".",".",0,2,".",".",".",".",".",".","|"],["_",null,null,".",".",12,14,".",".",".",".",".",".",".",".","|",".",".",0,2,".",".",".",".",".",".",".",".","|"],["_",null,null,12,15,".",".",".",".",".",".",".",".",".",".","|",0,3,".",".",".",".",".",".",".",".",".",".","|"]],[[".",".",".",".",".",".",".",".",".",".",".",".",12,15,"|",".",".",".",".",".",".",".",".",".",".",".",".",0],[".",".",".",".",".",".",".",".",".",".",12,15,".",".","|",".",".",".",".",".",".",".",".",".",".",0,3,"."],[".",".",".",".",".",".",".",12,14,15,".",".",".",".","|",".",".",".",".",".",".",".",0,2,3,".",".","."],[".",".",".",".",".",12,14,".",".",".",".",".",".",".","|",".",".",".",".",".",0,2,".",".",".",".",".","."],[".",".",12,13,14,".",".",".",".",".",".",".",".",".","|",".",".",0,1,2,".",".",".",".",".",".",".","."],[12,15,".",".",".",".",".",".",".",".",".",".",".",".","|",0,3,".",".",".",".",".",".",".",".",".",".","."]]],"numberofstrings":6,"notes":["E","B","G","D","A","E","B"],"capo":0,"stringnotes":["E4","B3","G3","D3","A2","E2"],"comments":["Stave 1:","Stave 2:"],"timing":[[null,null,null,"W","W","W","W","W","W","W","W","W","W","W","W",null,"W","W","W","W","W","W","W","W","W","W","W","W"],["W","W","W","W","W","W","W","W","W","W","W","W","W","W",null,"W","W","W","W","W","W","W","W","W","W","W","W","W"]],"timingvisible":false,"tabcounter":28,"stave":1,"totalstaves":2,"instrument":"6guitar","selectedtuning":"6_standard","version":"13"}

Member for

3 years 2 months
Submitted by SammyOpe on Fri, 2017-12-01 04:20