Sound will begin in 5 seconds

Petri Am Asteikko

01234567891011121314151617181920212223
E
B
G
D
A
E
B
0 1 2 3 4 5 6 7 8 9 10 11 12 13 14 15 16 17 18 19 20 21 22 23
(/) Slide Up  (\) Slide Down  (h) Hammer On  (p) Pull Off  (b) Bend (r) Release (v) Vibrato

Stave 1:

E|-----------------------|-----------------------|-----------------------|-----------------------|--
B|-----------------------|-----------------------|-----------------------|-----------------------|--
G|-----------------------|-----------------------|-----------------------|--5--7--9--7--5--7--9--|--
D|-----------------------|-----------------------|--5--7--9--7--5--7--9--|-----------------------|--
A|-----------------------|--5--7--8--7--5--7--8--|-----------------------|-----------------------|--
E|--5--7--8--7--5--7--8--|-----------------------|-----------------------|-----------------------|--

Stave 2:

E|-------------------------7--8--10--8--7--8--10--|-----------|--
B|--6--8--10--8--6--8--10-------------------------|--8/10-----|--
G|------------------------------------------------|-----------|--
D|------------------------------------------------|-----------|--
A|------------------------------------------------|-----------|--
E|------------------------------------------------|-----------|--

Stave 3:

E|--------------------|----------------------|----------------------|------------------------|--
B|--------------------|----------------------|----------------------|------------------------|--
G|--------------------|----------------------|------------7--9--10--|-------------9--10--12--|--
D|--------------------|----------------------|--7--9--10------------|--9--10--12-------------|--
A|-----------5--7--8--|------------7--8--10--|----------------------|------------------------|--
E|--5--7--8-----------|--7--8--10------------|----------------------|------------------------|--

Stave 4:

E|--------------10--12--13--|--------------12--13--15--|--17--
B|--10--12--13--------------|--12--13--15--------------|------
G|--------------------------|--------------------------|------
D|--------------------------|--------------------------|------
A|--------------------------|--------------------------|------
E|--------------------------|--------------------------|------

http://www.guitartabcreator.com
Guitar Tab Creator is intended to store guitar tab created through the tool. It currently does not support in-line text editing. Any text you place in here will be lost. If you need to comment on your tab, please use the "Tab Notes" section located below.