Sound will begin in 5 seconds

Onni Harmoninen Am

01234567891011121314151617181920212223
E
B
G
D
A
E
B
0 1 2 3 4 5 6 7 8 9 10 11 12 13 14 15 16 17 18 19 20 21 22 23
(/) Slide Up  (\) Slide Down  (h) Hammer On  (p) Pull Off  (b) Bend (r) Release (v) Vibrato

Stave 1:

E|--13--17--16--17--|--13--17--16--17--|--12--17--16--17--|--12--17--16--17--|------17--16--17--|--
B|------------------|------------------|------------------|------------------|--15--------------|--
G|------------------|------------------|------------------|------------------|------------------|--
D|------------------|------------------|------------------|------------------|------------------|--
A|------------------|------------------|------------------|------------------|------------------|--
E|------------------|------------------|------------------|------------------|------------------|--

Stave 2:

E|------17--16--17--|------17--16--17--|------17--16--17--|------16--14--16--|------16--14--16--|--
B|--15--------------|--13--------------|--13--------------|--12--------------|--12--------------|--
G|------------------|------------------|------------------|------------------|------------------|--
D|------------------|------------------|------------------|------------------|------------------|--
A|------------------|------------------|------------------|------------------|------------------|--
E|------------------|------------------|------------------|------------------|------------------|--

Stave 3:

E|------17--16--17--|------17--16--17--|--19--17--16-------------------------------------------|--
B|--13--------------|--13--------------|--------------18--17--15-------------------------------|--
G|------------------|------------------|--------------------------17--16--14--13--16--13--14v--|--
D|------------------|------------------|-------------------------------------------------------|--
A|------------------|------------------|-------------------------------------------------------|--
E|------------------|------------------|-------------------------------------------------------|--

http://www.guitartabcreator.com
Guitar Tab Creator is intended to store guitar tab created through the tool. It currently does not support in-line text editing. Any text you place in here will be lost. If you need to comment on your tab, please use the "Tab Notes" section located below.