Miikus Arpeggiot

Chords

01234567891011121314151617181920212223
E
B
G
D
A
E
B
0 1 2 3 4 5 6 7 8 9 10 11 12 13 14 15 16 17 18 19 20 21 22 23
(/) Slide Up  (\) Slide Down  (h) Hammer On  (p) Pull Off  (b) Bend (r) Release (v) Vibrato

Stave 1:

E|--5-----------------------------5--|--5-----------------------5--8--|--
B|--5-----------------------5--8-----|--6--------------------6--------|--
G|--5--------------------5-----------|--5--------------5--7-----------|--
D|--5--------------5--7--------------|--7-----------7-----------------|--
A|--7-----------7--------------------|--5-----5--8--------------------|--
E|--5-----5--8-----------------------|--------------------------------|--

Stave 2:

E|--8----------------------------8--12--|--7------------------------7--10--|--
B|--10-----------------------10---------|--9---------------------9---------|--
G|--9-----------------9--10-------------|--7---------------7--9------------|--
D|--10------------10--------------------|--9------------9------------------|--
A|--8------8--12------------------------|--7-----7--11---------------------|--
E|--------------------------------------|----------------------------------|--

							http://www.guitartabcreator.com
Instruments
{"title":"","strings":[[[5,"_",".",".",".",".",".",".",".",".",5,"|",5,"_",".",".",".",".",".",".",5,8,"|"],[5,"_",".",".",".",".",".",".",5,8,".","|",6,"_",".",".",".",".",".",6,".",".","|"],[5,"_",".",".",".",".",".",5,".",".",".","|",5,"_",".",".",".",5,7,".",".",".","|"],[5,"_",".",".",".",5,7,".",".",".",".","|",7,"_",".",".",7,".",".",".",".",".","|"],[7,"_",".",".",7,".",".",".",".",".",".","|",5,"_",5,8,".",".",".",".",".",".","|"],[5,"_",5,8,".",".",".",".",".",".",".","|",".","_",".",".",".",".",".",".",".",".","|"]],[[8,"_",".",".",".",".",".",".",8,12,"|",7,"_",".",".",".",".",".",".",7,10,"|"],[10,"_",".",".",".",".",".",10,".",".","|",9,"_",".",".",".",".",".",9,".",".","|"],[9,"_",".",".",".",9,10,".",".",".","|",7,"_",".",".",".",7,9,".",".",".","|"],[10,"_",".",".",10,".",".",".",".",".","|",9,"_",".",".",9,".",".",".",".",".","|"],[8,"_",8,12,".",".",".",".",".",".","|",7,"_",7,11,".",".",".",".",".",".","|"],[".","_",".",".",".",".",".",".",".",".","|",".","_",".",".",".",".",".",".",".",".","|"]]],"numberofstrings":6,"notes":["E","B","G","D","A","E","B"],"capo":0,"stringnotes":["E4","B3","G3","D3","A2","E2"],"comments":["Stave 1:","Stave 2:"],"timing":[["W",null,"W","W","W","W","W","W","W","W","W",null,"W",null,"W","W","W","W","W","W","W","W",null,"W",null,"W","W","W","W","W"],["W",null,"W","W","W","W","W","W","W","W",null,"W",null,"W","W","W","W","W","W","W","W"]],"timingvisible":false,"tabcounter":22,"stave":1,"totalstaves":2,"instrument":"6guitar","selectedtuning":"6_standard","version":"13"}

Member for

3 years 2 months
Submitted by SammyOpe on Thu, 2018-05-31 04:17