Markus ACDC Back In Black Gt

Chords

01234567891011121314151617181920212223
E
B
G
D
A
E
B
0 1 2 3 4 5 6 7 8 9 10 11 12 13 14 15 16 17 18 19 20 21 22 23
(/) Slide Up  (\) Slide Down  (h) Hammer On  (p) Pull Off  (b) Bend (r) Release (v) Vibrato

Stave 1:

E|--------------|--------------|--------------|--
B|--------------|--------------|--------------|--
G|--------------|--------------|--------------|--
D|--------------|--------------|--------------|--
A|-----5--4--2--|--4-----2-----|--2-----2--2--|--
E|--0-----------|-----3-----5--|-----6--------|--

Stave 2:

E|--------------|--------------|--------------|--
B|--------------|--------------|--------------|--
G|--------------|--------------|--------------|--
D|-----5--4--2--|--4-----2-----|--2-----2--2--|--
A|--0-----------|-----3-----5--|-----6--------|--
E|--------------|--------------|--------------|--

Stave 3:

E|---------12------------------------------|--
B|--15b17------15--12---------12-----------|--
G|---------------------14b15------12-------|--
D|------------------------------------14v--|--
A|-----------------------------------------|--
E|-----------------------------------------|--

							http://www.guitartabcreator.com
Instruments
{"title":"Markus ACDC Back In Black Gt","strings":[[[".",".",".",".","|",".",".",".",".","|",".",".",".",".","|"],[".",".",".",".","|",".",".",".",".","|",".",".",".",".","|"],[".",".",".",".","|",".",".",".",".","|",".",".",".",".","|"],[".",".",".",".","|",".",".",".",".","|",".",".",".",".","|"],[".",5,4,2,"|",4,".",2,".","|",2,".",2,2,"|"],[0,".",".",".","|",".",3,".",5,"|",".",6,".",".","|"]],[[".",".",".",".","|",".",".",".",".","|",".",".",".",".","|"],[".",".",".",".","|",".",".",".",".","|",".",".",".",".","|"],[".",".",".",".","|",".",".",".",".","|",".",".",".",".","|"],[".",5,4,2,"|",4,".",2,".","|",2,".",2,2,"|"],[0,".",".",".","|",".",3,".",5,"|",".",6,".",".","|"],[".",".",".",".","|",".",".",".",".","|",".",".",".",".","|"]],[[".",".",".",12,".",".",".",".",".",".",".",".",".","|"],[15,"b",17,".",15,12,".",".",".",12,".",".",".","|"],[".",".",".",".",".",".",14,"b",15,".",12,".",".","|"],[".",".",".",".",".",".",".",".",".",".",".",14,"v","|"],[".",".",".",".",".",".",".",".",".",".",".",".",".","|"],[".",".",".",".",".",".",".",".",".",".",".",".",".","|"]]],"numberofstrings":6,"notes":["E","B","G","D","A","E","B"],"capo":0,"stringnotes":["E4","B3","G3","D3","A2","E2"],"comments":["Stave 1:","Stave 2:","Stave 3:"],"timing":[["W","W","W","W",null,"W","W","W","W",null,"W","W","W","W"],["W","W","W","W",null,"W","W","W","W",null,"W","W","W","W"],["W",null,"W","W","W","W","W",null,"W","W","W","W"]],"timingvisible":false,"tabcounter":14,"stave":2,"totalstaves":3,"instrument":"6guitar","selectedtuning":"6_standard","version":"13"}

Member for

3 years 2 months
Submitted by SammyOpe on Wed, 2019-01-30 08:52