Juho T. 29.3.2018

Chords

01234567891011121314151617181920212223
E
B
G
D
A
E
B
0 1 2 3 4 5 6 7 8 9 10 11 12 13 14 15 16 17 18 19 20 21 22 23
(/) Slide Up  (\) Slide Down  (h) Hammer On  (p) Pull Off  (b) Bend (r) Release (v) Vibrato

Stave 1:

E|--8--12--5----------------------------------------------------|--------------|--
B|------------8--12--5------------------------------------------|--------------|--
G|----------------------7--12--5--------------------------------|--------2-----|--
D|--------------------------------7--12--5----------------------|--------2-----|--
A|------------------------------------------7--12--5------------|--------0-----|--
E|----------------------------------------------------8--12--5--|--3-----------|--

Stave 2:

E|--------------|--------------|--------------|--------------|----------17--|--
B|--------------|--------------|--------------|----------17--|--12--15------|--
G|--------------|--------------|----------16--|--12--14------|--------------|--
D|--------------|----------17--|--12--14------|--------------|--------------|--
A|----------17--|--12--14------|--------------|--------------|--------------|--
E|--12--15------|--------------|--------------|--------------|--------------|--

Stave 3:

E|--14--15--14--12----------|--------------------------|-------------------------------|--
B|------------------15--12--|--13--15--13--12----------|-------------------------------|--
G|--------------------------|------------------14--11--|--12--14--12--11---------------|--
D|--------------------------|--------------------------|------------------14--12--14v--|--
A|--------------------------|--------------------------|-------------------------------|--
E|--------------------------|--------------------------|-------------------------------|--

							http://www.guitartabcreator.com
Instruments
{"title":"Juho T. 29.3.2018","strings":[[[8,12,5,".",".",".",".",".",".",".",".",".",".",".",".",".",".",".","|",".","_",".","_","|"],[".",".",".",8,12,5,".",".",".",".",".",".",".",".",".",".",".",".","|",".","_",".","_","|"],[".",".",".",".",".",".",7,12,5,".",".",".",".",".",".",".",".",".","|",".","_",2,"_","|"],[".",".",".",".",".",".",".",".",".",7,12,5,".",".",".",".",".",".","|",".","_",2,"_","|"],[".",".",".",".",".",".",".",".",".",".",".",".",7,12,5,".",".",".","|",".","_",0,"_","|"],[".",".",".",".",".",".",".",".",".",".",".",".",".",".",".",8,12,5,"|",3,"_",".","_","|"]],[[".",".",".","|",".",".",".","|",".",".",".","|",".",".",".","|",".",".",17,"|"],[".",".",".","|",".",".",".","|",".",".",".","|",".",".",17,"|",12,15,".","|"],[".",".",".","|",".",".",".","|",".",".",16,"|",12,14,".","|",".",".",".","|"],[".",".",".","|",".",".",17,"|",12,14,".","|",".",".",".","|",".",".",".","|"],[".",".",17,"|",12,14,".","|",".",".",".","|",".",".",".","|",".",".",".","|"],[12,15,".","|",".",".",".","|",".",".",".","|",".",".",".","|",".",".",".","|"]],[[14,15,14,12,".",".","|",".",".",".",".",".",".","|",".",".",".",".",".",".",".",".","|"],[".",".",".",".",15,12,"|",13,15,13,12,".",".","|",".",".",".",".",".",".",".",".","|"],[".",".",".",".",".",".","|",".",".",".",".",14,11,"|",12,14,12,11,".",".",".",".","|"],[".",".",".",".",".",".","|",".",".",".",".",".",".","|",".",".",".",".",14,12,14,"v","|"],[".",".",".",".",".",".","|",".",".",".",".",".",".","|",".",".",".",".",".",".",".",".","|"],[".",".",".",".",".",".","|",".",".",".",".",".",".","|",".",".",".",".",".",".",".",".","|"]]],"numberofstrings":6,"notes":["E","B","G","D","A","E","B"],"capo":0,"stringnotes":["E4","B3","G3","D3","A2","E2"],"comments":["Stave 1:","Stave 2:","Stave 3:"],"timing":[["W","W","W","W","W","W","W","W","W","W","W","W","W","W","W","W","W","W","W","W",null,"W"],["W","W","W",null,"W","W","W",null,"W","W","W",null,"W","W","W",null,"W","W","W"],["W","W","W","W","W","W",null,"W","W","W","W","W","W",null,"W","W","W","W","W","W","W"]],"timingvisible":false,"tabcounter":23,"stave":2,"totalstaves":3,"instrument":"6guitar","selectedtuning":"6_standard","version":"13"}

Member for

3 years 2 months
Submitted by SammyOpe on Wed, 2018-05-30 02:45