Juho Läksyt 7.8.2018

Chords

01234567891011121314151617181920212223
E
B
G
D
A
E
B
0 1 2 3 4 5 6 7 8 9 10 11 12 13 14 15 16 17 18 19 20 21 22 23
(/) Slide Up  (\) Slide Down  (h) Hammer On  (p) Pull Off  (b) Bend (r) Release (v) Vibrato

Stave 1:

E|-------------------------------------|-------------------------------------|-------------------
B|-------------------------------------|-------------------------------------|-------------------
G|-------------------------------------|-------------------------------------|----------12-------
D|-------------------------------------|----------12----------------12-14-16-|-12-14-16----16-14-
A|----------12----------------12-14-15-|-12-14-15----15-14-12-14-15----------|-------------------
E|-12-14-15----15-14-12-14-15----------|-------------------------------------|-------------------

Stave 2:

E|-------------------|-------------------------------------|-
B|-------------------|----------13----------------13-15-17-|-
G|----------12-14-16-|-12-14-16----16-14-12-14-16----------|-
D|-12-14-16----------|-------------------------------------|-
A|-------------------|-------------------------------------|-
E|-------------------|-------------------------------------|-

							http://www.guitartabcreator.com
Instruments
{"title":"Juho Läksyt 7.8.2018","strings":[[[".",".",".",".",".",".",".",".",".",".",".",".","|",".",".",".",".",".",".",".",".",".",".",".",".","|",".",".",".",".",".","."],[".",".",".",".",".",".",".",".",".",".",".",".","|",".",".",".",".",".",".",".",".",".",".",".",".","|",".",".",".",".",".","."],[".",".",".",".",".",".",".",".",".",".",".",".","|",".",".",".",".",".",".",".",".",".",".",".",".","|",".",".",".",12,".","."],[".",".",".",".",".",".",".",".",".",".",".",".","|",".",".",".",12,".",".",".",".",".",12,14,16,"|",12,14,16,".",16,14],[".",".",".",12,".",".",".",".",".",12,14,15,"|",12,14,15,".",15,14,12,14,15,".",".",".","|",".",".",".",".",".","."],[12,14,15,".",15,14,12,14,15,".",".",".","|",".",".",".",".",".",".",".",".",".",".",".",".","|",".",".",".",".",".","."]],[[".",".",".",".",".",".","|",".",".",".",".",".",".",".",".",".",".",".",".","|"],[".",".",".",".",".",".","|",".",".",".",13,".",".",".",".",".",13,15,17,"|"],[".",".",".",12,14,16,"|",12,14,16,".",16,14,12,14,16,".",".",".","|"],[12,14,16,".",".",".","|",".",".",".",".",".",".",".",".",".",".",".",".","|"],[".",".",".",".",".",".","|",".",".",".",".",".",".",".",".",".",".",".",".","|"],[".",".",".",".",".",".","|",".",".",".",".",".",".",".",".",".",".",".",".","|"]]],"numberofstrings":6,"notes":["E","B","G","D","A","E","B"],"capo":0,"stringnotes":["E4","B3","G3","D3","A2","E2"],"comments":["Stave 1:","Stave 2:"],"timing":[["W","W","W","W","W","W","W","W","W","W","W","W",null,"W","W","W","W","W","W","W","W","W","W","W","W",null,"W","W","W","W","W","W","W"],["W","W","W","W","W","W",null,"W","W","W","W","W","W","W","W","W","W","W","W"]],"timingvisible":false,"tabcounter":20,"stave":1,"totalstaves":2,"instrument":"6guitar","selectedtuning":"6_standard","version":"13"}

Member for

3 years 2 months
Submitted by SammyOpe on Thu, 2018-08-09 01:37