Juho Läksyt 31.7.2018

Chords

01234567891011121314151617181920212223
E
B
G
D
A
E
B
0 1 2 3 4 5 6 7 8 9 10 11 12 13 14 15 16 17 18 19 20 21 22 23
(/) Slide Up  (\) Slide Down  (h) Hammer On  (p) Pull Off  (b) Bend (r) Release (v) Vibrato

Stave 1:

E|---------------|-----------------|------------------|-------------------|-12v----|-
B|---------------|-----------------|---------10-12-13-|----------12-13-15-|--------|-
G|---------------|-----------------|-9-11-12----------|-11-12-14----------|--------|-
D|--------7-9-10-|---------9-10-12-|------------------|-------------------|--------|-
A|-7-9-10--------|-9-10-12---------|------------------|-------------------|--------|-
E|---------------|-----------------|------------------|-------------------|--------|-

Stave 2:

E|-14-15-14-12-------|-14-15-14-12-------|-15-17-15-12-------|-15-17-15-12-------|-
B|-------------15-12-|-------------15-12-|-------------15-12-|-------------15-12-|-
G|-------------------|-------------------|-------------------|-------------------|-
D|-------------------|-------------------|-------------------|-------------------|-
A|-------------------|-------------------|-------------------|-------------------|-
E|-------------------|-------------------|-------------------|-------------------|-

Stave 3:

E|-17-18-17-15-------|-17-18-17-15-------|--------|-
B|-------------17-15-|-------------17-15-|-17v----|-
G|-------------------|-------------------|--------|-
D|-------------------|-------------------|--------|-
A|-------------------|-------------------|--------|-
E|-------------------|-------------------|--------|-

							http://www.guitartabcreator.com
Instruments
{"title":"Juho Läksyt 31.7.2018","strings":[[[".",".",".",".",".",".","|",".",".",".",".",".",".","|",".",".",".",".",".",".","|",".",".",".",".",".",".","|",12,"v","_","|"],[".",".",".",".",".",".","|",".",".",".",".",".",".","|",".",".",".",10,12,13,"|",".",".",".",12,13,15,"|",".",".","_","|"],[".",".",".",".",".",".","|",".",".",".",".",".",".","|",9,11,12,".",".",".","|",11,12,14,".",".",".","|",".",".","_","|"],[".",".",".",7,9,10,"|",".",".",".",9,10,12,"|",".",".",".",".",".",".","|",".",".",".",".",".",".","|",".",".","_","|"],[7,9,10,".",".",".","|",9,10,12,".",".",".","|",".",".",".",".",".",".","|",".",".",".",".",".",".","|",".",".","_","|"],[".",".",".",".",".",".","|",".",".",".",".",".",".","|",".",".",".",".",".",".","|",".",".",".",".",".",".","|",".",".","_","|"]],[[14,15,14,12,".",".","|",14,15,14,12,".",".","|",15,17,15,12,".",".","|",15,17,15,12,".",".","|"],[".",".",".",".",15,12,"|",".",".",".",".",15,12,"|",".",".",".",".",15,12,"|",".",".",".",".",15,12,"|"],[".",".",".",".",".",".","|",".",".",".",".",".",".","|",".",".",".",".",".",".","|",".",".",".",".",".",".","|"],[".",".",".",".",".",".","|",".",".",".",".",".",".","|",".",".",".",".",".",".","|",".",".",".",".",".",".","|"],[".",".",".",".",".",".","|",".",".",".",".",".",".","|",".",".",".",".",".",".","|",".",".",".",".",".",".","|"],[".",".",".",".",".",".","|",".",".",".",".",".",".","|",".",".",".",".",".",".","|",".",".",".",".",".",".","|"]],[[17,18,17,15,".",".","|",17,18,17,15,".",".","|",".",".","_","|"],[".",".",".",".",17,15,"|",".",".",".",".",17,15,"|",17,"v","_","|"],[".",".",".",".",".",".","|",".",".",".",".",".",".","|",".",".","_","|"],[".",".",".",".",".",".","|",".",".",".",".",".",".","|",".",".","_","|"],[".",".",".",".",".",".","|",".",".",".",".",".",".","|",".",".","_","|"],[".",".",".",".",".",".","|",".",".",".",".",".",".","|",".",".","_","|"]]],"numberofstrings":6,"notes":["E","B","G","D","A","E","B"],"capo":0,"stringnotes":["E4","B3","G3","D3","A2","E2"],"comments":["Stave 1:","Stave 2:","Stave 3:"],"timing":[["W","W","W","W","W","W",null,"W","W","W","W","W","W",null,"W","W","W","W","W","W",null,"W","W","W","W","W","W",null,"W"],["W","W","W","W","W","W",null,"W","W","W","W","W","W",null,"W","W","W","W","W","W",null,"W","W","W","W","W","W"],["W","W","W","W","W","W",null,"W","W","W","W","W","W",null,"W"]],"timingvisible":false,"tabcounter":18,"stave":2,"totalstaves":3,"instrument":"6guitar","selectedtuning":"6_standard","version":"13"}

Member for

3 years 2 months
Submitted by SammyOpe on Wed, 2018-08-01 06:27