Juho Godfather

Chords

01234567891011121314151617181920212223
E
B
G
D
A
E
B
0 1 2 3 4 5 6 7 8 9 10 11 12 13 14 15 16 17 18 19 20 21 22 23
(/) Slide Up  (\) Slide Down  (h) Hammer On  (p) Pull Off  (b) Bend (r) Release (v) Vibrato

Stave 1:

E|------10--13--12--10--13--|--10--12--10-----------------|------10--13--12--10--13--|--10--12--10--
B|--10----------------------|--------------11--13--10-----|--10----------------------|--------------
G|--------------------------|-----------------------------|--------------------------|--------------
D|--------------------------|-----------------------------|--------------------------|--------------
A|--------------------------|-----------------------------|--------------------------|--------------
E|--------------------------|-----------------------------|--------------------------|--------------

Stave 2:

E|---------------|----------9--12--|----------9--10--|--------------------------------------|--
B|--10--9--8-----|------11---------|------11---------|----------13--11--10--13--11--11--10--|--
G|---------------|--12-------------|--12-------------|------10------------------------------|--
D|---------------|-----------------|-----------------|--12----------------------------------|--
A|---------------|-----------------|-----------------|--------------------------------------|--
E|---------------|-----------------|-----------------|--------------------------------------|--

Stave 3:

E|--------------|--
B|--10----------|--
G|--------------|--
D|------11--12--|--
A|--------------|--
E|--------------|--

							http://www.guitartabcreator.com
Instruments
{"title":"","strings":[[[".",10,13,12,10,13,"|",10,12,10,".",".",".","_","|",".",10,13,12,10,13,"|",10,12,10],[10,".",".",".",".",".","|",".",".",".",11,13,10,"_","|",10,".",".",".",".",".","|",".",".","."],[".",".",".",".",".",".","|",".",".",".",".",".",".","_","|",".",".",".",".",".",".","|",".",".","."],[".",".",".",".",".",".","|",".",".",".",".",".",".","_","|",".",".",".",".",".",".","|",".",".","."],[".",".",".",".",".",".","|",".",".",".",".",".",".","_","|",".",".",".",".",".",".","|",".",".","."],[".",".",".",".",".",".","|",".",".",".",".",".",".","_","|",".",".",".",".",".",".","|",".",".","."]],[[".",".",".","_","|",".",".",9,12,"|",".",".",9,10,"|",".",".",".",".",".",".",".",".",".","|"],[10,9,8,"_","|",".",11,".",".","|",".",11,".",".","|",".",".",13,11,10,13,11,11,10,"|"],[".",".",".","_","|",12,".",".",".","|",12,".",".",".","|",".",10,".",".",".",".",".",".",".","|"],[".",".",".","_","|",".",".",".",".","|",".",".",".",".","|",12,".",".",".",".",".",".",".",".","|"],[".",".",".","_","|",".",".",".",".","|",".",".",".",".","|",".",".",".",".",".",".",".",".",".","|"],[".",".",".","_","|",".",".",".",".","|",".",".",".",".","|",".",".",".",".",".",".",".",".",".","|"]],[[".",".",".","|"],[10,".",".","|"],[".",".",".","|"],[".",11,12,"|"],[".",".",".","|"],[".",".",".","|"]]],"numberofstrings":6,"notes":["E","B","G","D","A","E","B"],"capo":0,"stringnotes":["E4","B3","G3","D3","A2","E2"],"comments":["Stave 1:","Stave 2:","Stave 3:"],"timing":[["W","W","W","W","W","W","W","W","W","W","W","W","W",null,null,"W","W","W","W","W","W",null,"W","W","W"],["W","W","W",null,null,"W","W","W","W",null,"W","W","W","W",null,"W","W","W","W","W","W","W","W","W"],["W","W","W"]],"timingvisible":false,"tabcounter":4,"stave":2,"totalstaves":3,"instrument":"6guitar","selectedtuning":"6_standard","version":"13"}

Member for

3 years 2 months
Submitted by SammyOpe on Wed, 2018-06-13 03:41