Juho add9 Sointuja

Chords

01234567891011121314151617181920212223
E
B
G
D
A
E
B
0 1 2 3 4 5 6 7 8 9 10 11 12 13 14 15 16 17 18 19 20 21 22 23
(/) Slide Up  (\) Slide Down  (h) Hammer On  (p) Pull Off  (b) Bend (r) Release (v) Vibrato

Stave 1:

E|---------|--------|--------|--------|--0-----|--
B|--8------|--7-----|--5-----|--1-----|--0-----|--
G|--11-----|--9-----|--7-----|--4-----|--0-----|--
D|--9------|--7-----|--5-----|--2-----|--4-----|--
A|--7------|--5-----|--3-----|--0-----|--2-----|--
E|---------|--------|--------|--------|--0-----|--

Stave 2:

E|---------|--------|--------|--------|--------|--
B|---------|--------|--------|--------|--------|--
G|--11-----|--9-----|--7-----|--4-----|--------|--
D|--9------|--7-----|--5-----|--2-----|--4-----|--
A|--7------|--5-----|--3-----|--0-----|--2-----|--
E|---------|--------|--------|--------|--0-----|--

Stave 3:

E|--------------|--------------|--------------|--------------|--
B|--------------|--------------|--------------|--------0-----|--
G|--------0-----|--------0-----|--------0-----|-----2--------|--
D|-----4--------|-----4--------|-----4--------|--------------|--
A|--------------|--5-----------|--3-----------|--0-----------|--
E|--0-----------|--------------|--------------|--------------|--

							http://www.guitartabcreator.com
Instruments
{"title":"Juho add9 Sointuja","strings":[[[".","_","|",".","_","|",".","_","|",".","_","|",0,"_","|"],[8,"_","|",7,"_","|",5,"_","|",1,"_","|",0,"_","|"],[11,"_","|",9,"_","|",7,"_","|",4,"_","|",0,"_","|"],[9,"_","|",7,"_","|",5,"_","|",2,"_","|",4,"_","|"],[7,"_","|",5,"_","|",3,"_","|",0,"_","|",2,"_","|"],[".","_","|",".","_","|",".","_","|",".","_","|",0,"_","|"]],[[".","_","|",".","_","|",".","_","|",".","_","|",".","_","|"],[".","_","|",".","_","|",".","_","|",".","_","|",".","_","|"],[11,"_","|",9,"_","|",7,"_","|",4,"_","|",".","_","|"],[9,"_","|",7,"_","|",5,"_","|",2,"_","|",4,"_","|"],[7,"_","|",5,"_","|",3,"_","|",0,"_","|",2,"_","|"],[".","_","|",".","_","|",".","_","|",".","_","|",0,"_","|"]],[[".",".",".","_","|",".",".",".","_","|",".",".",".","_","|",".",".",".","_","|"],[".",".",".","_","|",".",".",".","_","|",".",".",".","_","|",".",".",0,"_","|"],[".",".",0,"_","|",".",".",0,"_","|",".",".",0,"_","|",".",2,".","_","|"],[".",4,".","_","|",".",4,".","_","|",".",4,".","_","|",".",".",".","_","|"],[".",".",".","_","|",5,".",".","_","|",3,".",".","_","|",0,".",".","_","|"],[0,".",".","_","|",".",".",".","_","|",".",".",".","_","|",".",".",".","_","|"]]],"numberofstrings":6,"notes":["E","B","G","D","A","E","B"],"capo":0,"stringnotes":["E4","B3","G3","D3","A2","E2"],"comments":["Stave 1:","Stave 2:","Stave 3:"],"timing":[["W",null,null,"W",null,"W","W",null,null,"W",null,null,"W"],["W",null,null,"W",null,null,"W",null,null,"W",null,null,"W"],["W","W","W",null,null,"W","W","W",null,null,"W","W","W",null,null,"W","W","W"]],"timingvisible":false,"tabcounter":20,"stave":2,"totalstaves":3,"instrument":"6guitar","selectedtuning":"6_standard","version":"13"}

Member for

3 years 2 months
Submitted by SammyOpe on Tue, 2018-06-19 16:17