Jarkko Sweep Arpeggiot

Chords

01234567891011121314151617181920212223
E
B
G
D
A
E
B
0 1 2 3 4 5 6 7 8 9 10 11 12 13 14 15 16 17 18 19 20 21 22 23
(/) Slide Up  (\) Slide Down  (h) Hammer On  (p) Pull Off  (b) Bend (r) Release (v) Vibrato

Stave 1:

E|------------------------12--|--15p12---------------------|------------------------12h15--|--17v--|--
B|--------------------13------|---------13-----------------|--------------------13---------|-------|--
G|-------------12h14----------|-------------14p12----------|-------------12h14-------------|-------|--
D|---------14-----------------|--------------------14------|---------14--------------------|-------|--
A|--12h15---------------------|------------------------15--|--12h15------------------------|-------|--
E|----------------------------|----------------------------|-------------------------------|-------|--

Stave 2:

E|------------------------12--|--16p12---------------------|------------------------12h16--|--17v--|--
B|--------------------14------|---------14-----------------|--------------------14---------|-------|--
G|-------------13h14----------|-------------14p13----------|-------------13h14-------------|-------|--
D|---------14-----------------|--------------------14------|---------14--------------------|-------|--
A|--12h16---------------------|------------------------16--|--12h16------------------------|-------|--
E|----------------------------|----------------------------|-------------------------------|-------|--

							http://www.guitartabcreator.com
Instruments
{"title":"Jarkko Sweep Arpeggiot","strings":[[[".",".",".",".",".",".",".",".",12,"|",15,"p",12,".",".",".",".",".",".","|",".",".",".",".",".",".",".",".",12,"h",15,"|",17,"v","|"],[".",".",".",".",".",".",".",13,".","|",".",".",".",13,".",".",".",".",".","|",".",".",".",".",".",".",".",13,".",".",".","|",".",".","|"],[".",".",".",".",12,"h",14,".",".","|",".",".",".",".",14,"p",12,".",".","|",".",".",".",".",12,"h",14,".",".",".",".","|",".",".","|"],[".",".",".",14,".",".",".",".",".","|",".",".",".",".",".",".",".",14,".","|",".",".",".",14,".",".",".",".",".",".",".","|",".",".","|"],[12,"h",15,".",".",".",".",".",".","|",".",".",".",".",".",".",".",".",15,"|",12,"h",15,".",".",".",".",".",".",".",".","|",".",".","|"],[".",".",".",".",".",".",".",".",".","|",".",".",".",".",".",".",".",".",".","|",".",".",".",".",".",".",".",".",".",".",".","|",".",".","|"]],[[".",".",".",".",".",".",".",".",12,"|",16,"p",12,".",".",".",".",".",".","|",".",".",".",".",".",".",".",".",12,"h",16,"|",17,"v","|"],[".",".",".",".",".",".",".",14,".","|",".",".",".",14,".",".",".",".",".","|",".",".",".",".",".",".",".",14,".",".",".","|",".",".","|"],[".",".",".",".",13,"h",14,".",".","|",".",".",".",".",14,"p",13,".",".","|",".",".",".",".",13,"h",14,".",".",".",".","|",".",".","|"],[".",".",".",14,".",".",".",".",".","|",".",".",".",".",".",".",".",14,".","|",".",".",".",14,".",".",".",".",".",".",".","|",".",".","|"],[12,"h",16,".",".",".",".",".",".","|",".",".",".",".",".",".",".",".",16,"|",12,"h",16,".",".",".",".",".",".",".",".","|",".",".","|"],[".",".",".",".",".",".",".",".",".","|",".",".",".",".",".",".",".",".",".","|",".",".",".",".",".",".",".",".",".",".",".","|",".",".","|"]]],"numberofstrings":6,"notes":["E","B","G","D","A","E","B"],"capo":0,"stringnotes":["E4","B3","G3","D3","A2","E2"],"comments":["Stave 1:","Stave 2:"],"timing":[["W",null,"W","W","W",null,"W","W","W",null,"W",null,"W","W","W","W","W","W","W","W","W",null,"W","W","W",null,"W","W","W",null,"W",null,"W"],["W",null,"W","W","W",null,"W","W","W",null,"W",null,"W","W","W",null,"W","W","W",null,"W",null,"W","W","W",null,"W","W","W",null,"W",null,"W"]],"timingvisible":false,"tabcounter":35,"stave":1,"totalstaves":2,"instrument":"6guitar","selectedtuning":"6_standard","version":"13"}

Member for

3 years 2 months
Submitted by SammyOpe on Fri, 2018-10-05 02:18