Jarkko M. Guitar Licks

Chords

01234567891011121314151617181920212223
E
B
G
D
A
E
B
0 1 2 3 4 5 6 7 8 9 10 11 12 13 14 15 16 17 18 19 20 21 22 23
(/) Slide Up  (\) Slide Down  (h) Hammer On  (p) Pull Off  (b) Bend (r) Release (v) Vibrato

Stave 1:

E|--------------------5--8--7--6--5--|--------------------------------------------|--
B|-----------------6-----------------|--8--7--6--5--8--5--6-----------------------|--
G|-----------5--7--------------------|-----------------------7--5-----------------|--
D|--------7--------------------------|-----------------------------7--6--5--------|--
A|--5--8-----------------------------|--------------------------------------8--5--|--
E|-----------------------------------|--------------------------------------------|--

Stave 2:

E|----------5--------|-----------------|----------------------|--
B|-------5-----5--8--|-----------------|----------------------|--
G|--7b9--------------|--7h8p7p5--7-----|--5h7--5--------------|--
D|-------------------|--------------7--|----------7-----5--7--|--
A|-------------------|-----------------|-------------7--------|--
E|-------------------|-----------------|----------------------|--

							http://www.guitartabcreator.com
Instruments
{"title":"Jarkko M. Guitar Licks ","strings":[[[".",".",".",".",".",".",5,8,7,6,5,"|",".",".",".",".",".",".",".",".",".",".",".",".",".",".","|"],[".",".",".",".",".",6,".",".",".",".",".","|",8,7,6,5,8,5,6,".",".",".",".",".",".",".","|"],[".",".",".",5,7,".",".",".",".",".",".","|",".",".",".",".",".",".",".",7,5,".",".",".",".",".","|"],[".",".",7,".",".",".",".",".",".",".",".","|",".",".",".",".",".",".",".",".",".",7,6,5,".",".","|"],[5,8,".",".",".",".",".",".",".",".",".","|",".",".",".",".",".",".",".",".",".",".",".",".",8,5,"|"],[".",".",".",".",".",".",".",".",".",".",".","|",".",".",".",".",".",".",".",".",".",".",".",".",".",".","|"]],[[".",".",".",".",5,".",".","|",".",".",".",".",".",".",".",".",".","|",".",".",".",".",".",".",".",".","|"],[".",".",".",5,".",5,8,"|",".",".",".",".",".",".",".",".",".","|",".",".",".",".",".",".",".",".","|"],[7,"b",9,".",".",".",".","|",7,"h",8,"p",7,"p",5,7,".","|",5,"h",7,5,".",".",".",".","|"],[".",".",".",".",".",".",".","|",".",".",".",".",".",".",".",".",7,"|",".",".",".",".",7,".",5,7,"|"],[".",".",".",".",".",".",".","|",".",".",".",".",".",".",".",".",".","|",".",".",".",".",".",7,".",".","|"],[".",".",".",".",".",".",".","|",".",".",".",".",".",".",".",".",".","|",".",".",".",".",".",".",".",".","|"]]],"numberofstrings":6,"notes":["E","B","G","D","A","E","B"],"capo":0,"stringnotes":["E4","B3","G3","D3","A2","E2"],"comments":["Stave 1:","Stave 2:"],"timing":[["W","W","W","W","W","W","W","W","W","W","W",null,"W","W","W","W","W","W","W","W","W","W","W","W","W","W"],["W",null,"W","W","W","W","W",null,"W",null,"W",null,"W",null,"W","W","W",null,"W",null,"W","W","W","W","W","W"]],"timingvisible":false,"tabcounter":27,"stave":1,"totalstaves":2,"instrument":"6guitar","selectedtuning":"6_standard","version":"13"}

Member for

3 years 2 months
Submitted by SammyOpe on Fri, 2018-09-14 04:25