Sound will begin in 5 seconds

Jarkko - Eric Johnson Licki Dm

01234567891011121314151617181920212223
E
B
G
D
A
E
B
0 1 2 3 4 5 6 7 8 9 10 11 12 13 14 15 16 17 18 19 20 21 22 23
(/) Slide Up  (\) Slide Down  (h) Hammer On  (p) Pull Off  (b) Bend (r) Release (v) Vibrato

Stave 1:

E|--15--13-----------------|----------------------------|----------------------------|--
B|----------15--13---------|-----15--13-----------------|----------------------------|--
G|------------------14-----|-------------14--12---------|-----14--12-----------------|--
D|-------------------------|---------------------15-----|-------------15--12---------|--
A|-------------------------|----------------------------|---------------------15-----|--
E|-------------------------|----------------------------|----------------------------|--

Stave 2:

E|-------------------------|----------------------------|--
B|-------------------------|----------------------------|--
G|-------------------------|----------------------------|--
D|--15--12-----------------|----------------------------|--
A|----------15--12---------|-----15--12-----------------|--
E|------------------15-----|-------------15--13--10-----|--

Stave 3:

E|--13--10-----------------|----------------------------|-------------------------|--
B|----------13--10---------|-----13--10-----------------|-------------------------|--
G|------------------12-----|-------------12--10---------|--12--10-----------------|--
D|-------------------------|---------------------12-----|----------12--10---------|--
A|-------------------------|----------------------------|------------------12-----|--
E|-------------------------|----------------------------|-------------------------|--

Stave 4:

E|-------------------------|---------------------------|------------|--
B|-------------------------|---------------------------|------------|--
G|-------------------------|---------------------------|------------|--
D|--12--10-----------------|---------------------------|------------|--
A|----------12--10---------|-----12--10----------------|------------|--
E|------------------13-----|-------------13--10--8-----|-----10-----|--

http://www.guitartabcreator.com
Guitar Tab Creator is intended to store guitar tab created through the tool. It currently does not support in-line text editing. Any text you place in here will be lost. If you need to comment on your tab, please use the "Tab Notes" section located below.