Em Pentatoninen & E Blues Asteikko Harjoitus

Chords

01234567891011121314151617181920212223
E
B
G
D
A
E
B
0 1 2 3 4 5 6 7 8 9 10 11 12 13 14 15 16 17 18 19 20 21 22 23
(/) Slide Up  (\) Slide Down  (h) Hammer On  (p) Pull Off  (b) Bend (r) Release (v) Vibrato

Stave 1:

E|--------------------------------0--|-----------------------------------|--
B|--------------------------0--3-----|-----------------------------------|--
G|--------------------0--2-----------|-----------------------------7--9--|--
D|--------------0--2-----------------|--------------------5--7--9--------|--
A|--------0--2-----------------------|--------------5--7-----------------|--
E|--0--3-----------------------------|--0--3--5--7-----------------------|--

Stave 2:

E|--------------------------------------0--|-----------------------------------------|--
B|--------------------------------0--3-----|-----------------------------------------|--
G|-----------------------0--2--3-----------|-----------------------------------7--9--|--
D|-----------------0--2--------------------|-----------------------5--7--8--9--------|--
A|--------0--1--2--------------------------|-----------------5--7--------------------|--
E|--0--3-----------------------------------|--0--3--5--6--7--------------------------|--

							http://www.guitartabcreator.com
Instruments
{"title":"","strings":[[[".",".",".",".",".",".",".",".",".",".",0,"|",".",".",".",".",".",".",".",".",".",".",".","|"],[".",".",".",".",".",".",".",".",0,3,".","|",".",".",".",".",".",".",".",".",".",".",".","|"],[".",".",".",".",".",".",0,2,".",".",".","|",".",".",".",".",".",".",".",".",".",7,9,"|"],[".",".",".",".",0,2,".",".",".",".",".","|",".",".",".",".",".",".",5,7,9,".",".","|"],[".",".",0,2,".",".",".",".",".",".",".","|",".",".",".",".",5,7,".",".",".",".",".","|"],[0,3,".",".",".",".",".",".",".",".",".","|",0,3,5,7,".",".",".",".",".",".",".","|"]],[[".",".",".",".",".",".",".",".",".",".",".",".",0,"|",".",".",".",".",".",".",".",".",".",".",".",".",".","|"],[".",".",".",".",".",".",".",".",".",".",0,3,".","|",".",".",".",".",".",".",".",".",".",".",".",".",".","|"],[".",".",".",".",".",".",".",0,2,3,".",".",".","|",".",".",".",".",".",".",".",".",".",".",".",7,9,"|"],[".",".",".",".",".",0,2,".",".",".",".",".",".","|",".",".",".",".",".",".",".",5,7,8,9,".",".","|"],[".",".",0,1,2,".",".",".",".",".",".",".",".","|",".",".",".",".",".",5,7,".",".",".",".",".",".","|"],[0,3,".",".",".",".",".",".",".",".",".",".",".","|",0,3,5,6,7,".",".",".",".",".",".",".",".","|"]]],"numberofstrings":6,"notes":["E","B","G","D","A","E","B"],"capo":0,"stringnotes":["E4","B3","G3","D3","A2","E2"],"comments":["Stave 1:","Stave 2:"],"timing":[["W","W","W","W","W","W","W","W","W","W","W",null,"W","W","W","W","W","W","W","W","W","W","W"],["W","W","W","W","W","W","W","W","W","W","W","W","W",null,"W","W","W","W","W","W","W","W","W","W","W","W","W"]],"timingvisible":false,"tabcounter":28,"stave":1,"totalstaves":2,"instrument":"6guitar","selectedtuning":"6_standard","version":"13"}

Member for

3 years 2 months
Submitted by SammyOpe on Fri, 2019-05-10 08:30