Em Pentatoninen & E Blues Asteikko

Chords

01234567891011121314151617181920212223
E
B
G
D
A
E
B
0 1 2 3 4 5 6 7 8 9 10 11 12 13 14 15 16 17 18 19 20 21 22 23
(/) Slide Up  (\) Slide Down  (h) Hammer On  (p) Pull Off  (b) Bend (r) Release (v) Vibrato

Stave 1:

E|--------------------------------0--3-----|-----3--0-----------------------------------|-----
B|--------------------------0--3-----------|-----------3--0-----------------------------|-----
G|--------------------0--2-----------------|-----------------2--0-----------------------|-----
D|--------------0--2-----------------------|-----------------------2--0-----------------|-----
A|--------0--2-----------------------------|-----------------------------2--0-----------|-----
E|--0--3-----------------------------------|-----------------------------------3--0-----|-----

Stave 2:

E|--------------------------------------0--3-----|-----3--0--------------------------------------|--
B|--------------------------------0--3-----------|-----------3--0--------------------------------|--
G|-----------------------0--2--3-----------------|-----------------3--2--0-----------------------|--
D|-----------------0--2--------------------------|--------------------------2--0-----------------|--
A|--------0--1--2--------------------------------|--------------------------------2--1--0--------|--
E|--0--3-----------------------------------------|-----------------------------------------3--0--|--

							http://www.guitartabcreator.com
Instruments
{"title":"","strings":[[[".",".",".",".",".",".",".",".",".",".",0,3,"_","|","_",3,0,".",".",".",".",".",".",".",".",".",".","_","|","_"],[".",".",".",".",".",".",".",".",0,3,".",".","_","|","_",".",".",3,0,".",".",".",".",".",".",".",".","_","|","_"],[".",".",".",".",".",".",0,2,".",".",".",".","_","|","_",".",".",".",".",2,0,".",".",".",".",".",".","_","|","_"],[".",".",".",".",0,2,".",".",".",".",".",".","_","|","_",".",".",".",".",".",".",2,0,".",".",".",".","_","|","_"],[".",".",0,2,".",".",".",".",".",".",".",".","_","|","_",".",".",".",".",".",".",".",".",2,0,".",".","_","|","_"],[0,3,".",".",".",".",".",".",".",".",".",".","_","|","_",".",".",".",".",".",".",".",".",".",".",3,0,"_","|","_"]],[[".",".",".",".",".",".",".",".",".",".",".",".",0,3,"_","|","_",3,0,".",".",".",".",".",".",".",".",".",".",".",".","|"],[".",".",".",".",".",".",".",".",".",".",0,3,".",".","_","|","_",".",".",3,0,".",".",".",".",".",".",".",".",".",".","|"],[".",".",".",".",".",".",".",0,2,3,".",".",".",".","_","|","_",".",".",".",".",3,2,0,".",".",".",".",".",".",".","|"],[".",".",".",".",".",0,2,".",".",".",".",".",".",".","_","|","_",".",".",".",".",".",".",".",2,0,".",".",".",".",".","|"],[".",".",0,1,2,".",".",".",".",".",".",".",".",".","_","|","_",".",".",".",".",".",".",".",".",".",2,1,0,".",".","|"],[0,3,".",".",".",".",".",".",".",".",".",".",".",".","_","|","_",".",".",".",".",".",".",".",".",".",".",".",".",3,0,"|"]]],"numberofstrings":6,"notes":["E","B","G","D","A","E","B"],"capo":0,"stringnotes":["E4","B3","G3","D3","A2","E2"],"comments":["Stave 1:","Stave 2:"],"timing":[["W","W","W","W","W","W","W","W","W","W","W","W",null,null,null,"W","W","W","W","W","W","W","W","W","W","W","W"],["W","W","W","W","W","W","W","W","W","W","W","W","W","W",null,null,null,"W","W","W","W","W","W","W","W","W","W","W","W","W","W"]],"timingvisible":false,"tabcounter":32,"stave":1,"totalstaves":2,"instrument":"6guitar","selectedtuning":"6_standard","version":"13"}

Member for

3 years 2 months
Submitted by SammyOpe on Tue, 2019-01-15 07:19