Eemil Arpeggio Sequenssi

Chords

01234567891011121314151617181920212223
E
B
G
D
A
E
B
0 1 2 3 4 5 6 7 8 9 10 11 12 13 14 15 16 17 18 19 20 21 22 23
(/) Slide Up  (\) Slide Down  (h) Hammer On  (p) Pull Off  (b) Bend (r) Release (v) Vibrato

Stave 1:

E|-----------------8--12p8--------------------|---------------------12--15p12------------------|--
B|-------------10-----------10----------------|-----------------13-------------13--------------|--
G|----------9-------------------9-------------|-------------12---------------------12----------|--
D|------10-------------------------10---------|---------14-----------------------------14------|--
A|--12---------------------------------12-----|-----15-------------------------------------15--|--
E|--------------------------------------------|------------------------------------------------|--

Stave 2:

E|------------------15--19p15---------------------|------------------14--17p14------------------|--
B|--------------17-------------17-----------------|--------------15-------------15--------------|--
G|----------16---------------------16-------------|----------14---------------------14----------|--
D|------17-----------------------------17---------|------16-----------------------------16------|--
A|--19-------------------------------------19-----|--17-------------------------------------17--|--
E|------------------------------------------------|---------------------------------------------|--

							http://www.guitartabcreator.com
Instruments
{"title":"","strings":[[[".",".",".",".",8,12,"p",8,".",".",".",".","_","|","_",".",".",".",".",12,15,"p",12,".",".",".",".","|"],[".",".",".",10,".",".",".",".",10,".",".",".","_","|","_",".",".",".",13,".",".",".",".",13,".",".",".","|"],[".",".",9,".",".",".",".",".",".",9,".",".","_","|","_",".",".",12,".",".",".",".",".",".",12,".",".","|"],[".",10,".",".",".",".",".",".",".",".",10,".","_","|","_",".",14,".",".",".",".",".",".",".",".",14,".","|"],[12,".",".",".",".",".",".",".",".",".",".",12,"_","|","_",15,".",".",".",".",".",".",".",".",".",".",15,"|"],[".",".",".",".",".",".",".",".",".",".",".",".","_","|","_",".",".",".",".",".",".",".",".",".",".",".",".","|"]],[[".",".",".",".",15,19,"p",15,".",".",".",".","_","|",".",".",".",".",14,17,"p",14,".",".",".",".","|"],[".",".",".",17,".",".",".",".",17,".",".",".","_","|",".",".",".",15,".",".",".",".",15,".",".",".","|"],[".",".",16,".",".",".",".",".",".",16,".",".","_","|",".",".",14,".",".",".",".",".",".",14,".",".","|"],[".",17,".",".",".",".",".",".",".",".",17,".","_","|",".",16,".",".",".",".",".",".",".",".",16,".","|"],[19,".",".",".",".",".",".",".",".",".",".",19,"_","|",17,".",".",".",".",".",".",".",".",".",".",17,"|"],[".",".",".",".",".",".",".",".",".",".",".",".","_","|",".",".",".",".",".",".",".",".",".",".",".",".","|"]]],"numberofstrings":6,"notes":["E","B","G","D","A","E","B"],"capo":0,"stringnotes":["E4","B3","G3","D3","A2","E2"],"comments":["Stave 1:","Stave 2:"],"timing":[["W","W","W","W","W","W",null,"W","W","W","W","W",null,null,null,"W","W","W","W","W","W",null,"W","W","W","W","W"],["W","W","W","W","W","W",null,"W","W","W","W","W",null,null,"W","W","W","W","W","W",null,"W","W","W","W","W"]],"timingvisible":false,"tabcounter":27,"stave":1,"totalstaves":2,"instrument":"6guitar","selectedtuning":"6_standard","version":"13"}

Member for

3 years 3 months
Submitted by SammyOpe on Thu, 2019-01-17 08:09