Eemeli Am Sequenssi

Chords

01234567891011121314151617181920212223
E
B
G
D
A
E
B
0 1 2 3 4 5 6 7 8 9 10 11 12 13 14 15 16 17 18 19 20 21 22 23
(/) Slide Up  (\) Slide Down  (h) Hammer On  (p) Pull Off  (b) Bend (r) Release (v) Vibrato

Stave 1:

E|--------------------|----------------------|----------------------|------------------------|--
B|--------------------|----------------------|----------------------|------------------------|--
G|--------------------|----------------------|------------7--9--10--|-------------9--10--12--|--
D|--------------------|----------------------|--7--9--10------------|--9--10--12-------------|--
A|-----------5--7--8--|------------7--8--10--|----------------------|------------------------|--
E|--5--7--8-----------|--7--8--10------------|----------------------|------------------------|--

Stave 2:

E|--------------10--12--13--|--------------12--13--15--|--17v--|--
B|--10--12--13--------------|--12--13--15--------------|-------|--
G|--------------------------|--------------------------|-------|--
D|--------------------------|--------------------------|-------|--
A|--------------------------|--------------------------|-------|--
E|--------------------------|--------------------------|-------|--

							http://www.guitartabcreator.com
Instruments
{"title":"Eemeli 4.10.2018","strings":[[[".",".",".",".",".",".","|",".",".",".",".",".",".","|",".",".",".",".",".",".","|",".",".",".",".",".",".","|"],[".",".",".",".",".",".","|",".",".",".",".",".",".","|",".",".",".",".",".",".","|",".",".",".",".",".",".","|"],[".",".",".",".",".",".","|",".",".",".",".",".",".","|",".",".",".",7,9,10,"|",".",".",".",9,10,12,"|"],[".",".",".",".",".",".","|",".",".",".",".",".",".","|",7,9,10,".",".",".","|",9,10,12,".",".",".","|"],[".",".",".",5,7,8,"|",".",".",".",7,8,10,"|",".",".",".",".",".",".","|",".",".",".",".",".",".","|"],[5,7,8,".",".",".","|",7,8,10,".",".",".","|",".",".",".",".",".",".","|",".",".",".",".",".",".","|"]],[[".",".",".",10,12,13,"|",".",".",".",12,13,15,"|",17,"v","|"],[10,12,13,".",".",".","|",12,13,15,".",".",".","|",".",".","|"],[".",".",".",".",".",".","|",".",".",".",".",".",".","|",".",".","|"],[".",".",".",".",".",".","|",".",".",".",".",".",".","|",".",".","|"],[".",".",".",".",".",".","|",".",".",".",".",".",".","|",".",".","|"],[".",".",".",".",".",".","|",".",".",".",".",".",".","|",".",".","|"]]],"numberofstrings":6,"notes":["E","B","G","D","A","E","B"],"capo":0,"stringnotes":["E4","B3","G3","D3","A2","E2"],"comments":["Stave 1:","Stave 2:"],"timing":[["W","W","W","W","W","W",null,"W","W","W","W","W","W",null,"W","W","W","W","W","W",null,"W","W","W","W","W","W"],["W","W","W","W","W","W",null,"W","W","W","W","W","W",null,"W"]],"timingvisible":false,"tabcounter":17,"stave":1,"totalstaves":2,"instrument":"6guitar","selectedtuning":"6_standard","version":"13"}

Member for

3 years 2 months
Submitted by SammyOpe on Fri, 2018-10-05 01:37