Anne Bass Heaven

Chords

01234567891011121314151617181920212223
E
B
G
D
A
E
B
0 1 2 3 4 5 6 7 8 9 10 11 12 13 14 15 16 17 18 19 20 21 22 23
(/) Slide Up  (\) Slide Down  (h) Hammer On  (p) Pull Off  (b) Bend (r) Release (v) Vibrato

Stave 1:

G|--------------------------|--------------------------|--------------------------|--------------
D|--------------------------|--------------------------|--2-----------------------|--------------
A|--4-----------------------|--2--2--2--2--4--4--4--4--|-----2--------------------|--2--2--2--2--
E|-----0--4--5--5--5--4--2--|--------------------------|--------4--5--5--5--4--2--|--------------

Stave 2:

G|--------------|--------------------------|-----------------------|-----------------------|--
D|--------------|--------------------------|-----------------------|--1--2-----------------|--
A|--4--4--4--4--|--4-----------------------|--2--2--2--2--4--4--4--|--------2--------------|--
E|--------------|-----0--4--5--5--5--4--2--|-----------------------|-----------4--5--5--5--|--

Stave 3:

G|--------------------------------|--
D|--------------------------------|--
A|--------2--2--2--2--4--4--4--4--|--
E|--4--2--------------------------|--

							http://www.guitartabcreator.com
Instruments
{"title":"","strings":[[[".",".",".",".",".",".",".",".","|",".",".",".",".",".",".",".",".","|",".",".",".",".",".",".",".",".","|",".",".",".","."],[".",".",".",".",".",".",".",".","|",".",".",".",".",".",".",".",".","|",2,".",".",".",".",".",".",".","|",".",".",".","."],[4,".",".",".",".",".",".",".","|",2,2,2,2,4,4,4,4,"|",".",2,".",".",".",".",".",".","|",2,2,2,2],[".",0,4,5,5,5,4,2,"|",".",".",".",".",".",".",".",".","|",".",".",4,5,5,5,4,2,"|",".",".",".","."]],[[".",".",".",".","|",".",".",".",".",".",".",".",".","|",".",".",".",".",".",".",".","|",".",".",".",".",".",".",".","|"],[".",".",".",".","|",".",".",".",".",".",".",".",".","|",".",".",".",".",".",".",".","|",1,2,".",".",".",".",".","|"],[4,4,4,4,"|",4,".",".",".",".",".",".",".","|",2,2,2,2,4,4,4,"|",".",".",2,".",".",".",".","|"],[".",".",".",".","|",".",0,4,5,5,5,4,2,"|",".",".",".",".",".",".",".","|",".",".",".",4,5,5,5,"|"]],[[".",".",".",".",".",".",".",".",".",".","|"],[".",".",".",".",".",".",".",".",".",".","|"],[".",".",2,2,2,2,4,4,4,4,"|"],[4,2,".",".",".",".",".",".",".",".","|"]]],"numberofstrings":4,"notes":["G","D","A","E"],"capo":0,"stringnotes":["G2","D2","A1","E1"],"comments":["Stave 1:","Stave 2:","Stave 3:"],"timing":[["W","W","W","W","W","W","W","W",null,"W","W","W","W","W","W","W","W",null,"W","W","W","W","W","W","W","W",null,"W","W","W","W"],["W","W","W","W",null,"W","W","W","W","W","W","W","W","W","W","W","W","W","W","W","W",null,"W","W","W","W","W","W","W"],["W","W","W","W","W","W","W","W","W","W"]],"timingvisible":false,"tabcounter":11,"stave":2,"totalstaves":3,"instrument":"4bass","selectedtuning":"4bass_standard","version":"13"}

Member for

3 years 2 months
Submitted by SammyOpe on Wed, 2018-10-31 01:57