Sound will begin in 5 seconds

Am Harmoninen Asteikko

01234567891011121314151617181920212223
E
B
G
D
A
E
B
0 1 2 3 4 5 6 7 8 9 10 11 12 13 14 15 16 17 18 19 20 21 22 23
(/) Slide Up  (\) Slide Down  (h) Hammer On  (p) Pull Off  (b) Bend (r) Release (v) Vibrato

Stave 1:

E|-----------------------------|-----------------------------------------------------13--15--17--|--
B|-----------------------------|-----------------------------------------13--15--17--------------|--
G|-----------------------------|-----------------------------12--14--16--------------------------|--
D|--------------------5--7-----|-----------------12--14--15--------------------------------------|--
A|-----------5--7--8-----------|-----12--14--15--------------------------------------------------|--
E|--5--7--8--------------------|-----------------------------------------------------------------|--

Stave 2:

E|-----------------------------|-----------------------------------------------------13--16--17--|--
B|-----------------------------|-----------------------------------------13--15--17--------------|--
G|-----------------------------|-----------------------------13--14--16--------------------------|--
D|--------------------6--7-----|-----------------12--14--15--------------------------------------|--
A|-----------5--7--8-----------|-----12--14--15--------------------------------------------------|--
E|--5--7--8--------------------|-----------------------------------------------------------------|--

Stave 3:

E|--17--12----------|-----12--8-----------------------------|--
B|----------13------|------------10-------------------------|--
G|--------------14--|----------------9----------------------|--
D|------------------|-------------------10------------------|--
A|------------------|-----------------------12--7-----------|--
E|------------------|------------------------------8--5-----|--

http://www.guitartabcreator.com
Guitar Tab Creator is intended to store guitar tab created through the tool. It currently does not support in-line text editing. Any text you place in here will be lost. If you need to comment on your tab, please use the "Tab Notes" section located below.