Believer

Chords

01234567891011121314151617181920212223
E
B
G
D
A
E
B
0 1 2 3 4 5 6 7 8 9 10 11 12 13 14 15 16 17 18 19 20 21 22 23
(/) Slide Up  (\) Slide Down  (h) Hammer On  (p) Pull Off  (b) Bend (r) Release (v) Vibrato

Stave 1:

E|-----1-----------------1--------------
B|--------4--4--2--4--4-----4--2--------
G|--3-----------------------------3--1--
D|--------------------------------------
A|--------------------------------------
E|--------------------------------------

Stave 2:

E|-----1-----------------1--------------------
B|--------4--4--2--4--4-----4--2-----------2--
G|--3-----------------------------3--1--3-----
D|--------------------------------------------
A|--------------------------------------------
E|--------------------------------------------

Stave 3:

E|--1--------------------
B|-----4--2-----------2--
G|-----------3--1--3-----
D|-----------------------
A|-----------------------
E|-----------------------

Stave 4:

E|--------------------------------------------------
B|--------------------------------------------------
G|--3--3--3--3--3--3--3--3--3--3--3--3--3--3--3--3--
D|--------------------------------------------------
A|--------------------------------------------------
E|--------------------------------------------------

Stave 5:

E|--------------------------------------------------------
B|--------2--2--2--2--2--2--2--2--1--1--1--1--1--1--1--1--
G|--3--3--------------------------------------------------
D|--------------------------------------------------------
A|--------------------------------------------------------
E|--------------------------------------------------------

Stave 6:

E|--6--9--9--8--6--9--9--8--6--6--9--9--8------
B|-----------------------------------------10--
G|---------------------------------------------
D|---------------------------------------------
A|---------------------------------------------
E|---------------------------------------------

Stave 7:

E|------------------------------------------------------
B|---------------------------------------6--------------
G|--8b8--6--8--6--8--6--8--6--8b8--6--8-----8--6--------
D|------------------------------------------------8--6--
A|------------------------------------------------------
E|------------------------------------------------------

Stave 8:

E|--6--9--9--8--6--9--9--8--6--6--9--9--8------
B|-----------------------------------------10--
G|---------------------------------------------
D|---------------------------------------------
A|---------------------------------------------
E|---------------------------------------------

							http://www.guitartabcreator.com
Instruments
{"title":"Believer","strings":[[[".",1,".",".",".",".",".",1,".",".",".","."],[".",".",4,4,2,4,4,".",4,2,".","."],[3,".",".",".",".",".",".",".",".",".",3,1],[".",".",".",".",".",".",".",".",".",".",".","."],[".",".",".",".",".",".",".",".",".",".",".","."],[".",".",".",".",".",".",".",".",".",".",".","."]],[[".",1,".",".",".",".",".",1,".",".",".",".",".","."],[".",".",4,4,2,4,4,".",4,2,".",".",".",2],[3,".",".",".",".",".",".",".",".",".",3,1,3,"."],[".",".",".",".",".",".",".",".",".",".",".",".",".","."],[".",".",".",".",".",".",".",".",".",".",".",".",".","."],[".",".",".",".",".",".",".",".",".",".",".",".",".","."]],[[1,".",".",".",".",".","."],[".",4,2,".",".",".",2],[".",".",".",3,1,3,"."],[".",".",".",".",".",".","."],[".",".",".",".",".",".","."],[".",".",".",".",".",".","."]],[[".",".",".",".",".",".",".",".",".",".",".",".",".",".",".","."],[".",".",".",".",".",".",".",".",".",".",".",".",".",".",".","."],[3,3,3,3,3,3,3,3,3,3,3,3,3,3,3,3],[".",".",".",".",".",".",".",".",".",".",".",".",".",".",".","."],[".",".",".",".",".",".",".",".",".",".",".",".",".",".",".","."],[".",".",".",".",".",".",".",".",".",".",".",".",".",".",".","."]],[[".",".",".",".",".",".",".",".",".",".",".",".",".",".",".",".",".","."],[".",".",2,2,2,2,2,2,2,2,1,1,1,1,1,1,1,1],[3,3,".",".",".",".",".",".",".",".",".",".",".",".",".",".",".","."],[".",".",".",".",".",".",".",".",".",".",".",".",".",".",".",".",".","."],[".",".",".",".",".",".",".",".",".",".",".",".",".",".",".",".",".","."],[".",".",".",".",".",".",".",".",".",".",".",".",".",".",".",".",".","."]],[[6,9,9,8,6,9,9,8,6,6,9,9,8,"."],[".",".",".",".",".",".",".",".",".",".",".",".",".",10],[".",".",".",".",".",".",".",".",".",".",".",".",".","."],[".",".",".",".",".",".",".",".",".",".",".",".",".","."],[".",".",".",".",".",".",".",".",".",".",".",".",".","."],[".",".",".",".",".",".",".",".",".",".",".",".",".","."]],[[".",".",".",".",".",".",".",".",".",".",".",".",".",".",".",".",".",".",".","."],[".",".",".",".",".",".",".",".",".",".",".",".",".",".",".",6,".",".",".","."],[8,"b",8,6,8,6,8,6,8,6,8,"b",8,6,8,".",8,6,".","."],[".",".",".",".",".",".",".",".",".",".",".",".",".",".",".",".",".",".",8,6],[".",".",".",".",".",".",".",".",".",".",".",".",".",".",".",".",".",".",".","."],[".",".",".",".",".",".",".",".",".",".",".",".",".",".",".",".",".",".",".","."]],[[6,9,9,8,6,9,9,8,6,6,9,9,8,"."],[".",".",".",".",".",".",".",".",".",".",".",".",".",10],[".",".",".",".",".",".",".",".",".",".",".",".",".","."],[".",".",".",".",".",".",".",".",".",".",".",".",".","."],[".",".",".",".",".",".",".",".",".",".",".",".",".","."],[".",".",".",".",".",".",".",".",".",".",".",".",".","."]]],"numberofstrings":6,"notes":["E","B","G","D","A","E","B"],"capo":0,"stringnotes":["E4","B3","G3","D3","A2","E2"],"comments":["Stave 1:","Stave 2:","Stave 3:","Stave 4:","Stave 5:","Stave 6:","Stave 7:","Stave 8:"],"timing":[["W","W","W","W","W","W","W","W","W","W","W","W"],["W","W","W","W","W","W","W","W","W","W","W","W","W","W"],["W","W","W","W","W","W","W"],["W","W","W","W","W","W","W","W","W","W","W","W","W","W","W","W"],["W","W","W","W","W","W","W","W","W","W","W","W","W","W","W","W","W","W"],["W","W","W","W","W","W","W","W","W","W","W","W","W","W"],["W",null,"W","W","W","W","W","W","W","W","W",null,"W","W","W","W","W","W","W","W"],["W","W","W","W","W","W","W","W","W","W","W","W","W","W"]],"timingvisible":false,"tabcounter":14,"stave":7,"totalstaves":8,"instrument":"6guitar","selectedtuning":"6_standard","version":"13"}

Member for

2 months 1 week
Submitted by Sammm on Fri, 2020-03-27 17:18