Sound will begin in 5 seconds

Jussi E5add b5+ Lydian

01234567891011121314151617181920212223
E
B
G
D
A
E
B
0 1 2 3 4 5 6 7 8 9 10 11 12 13 14 15 16 17 18 19 20 21 22 23
(/) Slide Up  (\) Slide Down  (h) Hammer On  (p) Pull Off  (b) Bend (r) Release (v) Vibrato

Stave 1:

E|--------------------------------------18------19--
B|------------------------------17------------------
G|--------------15------16----------15------16------
D|------14------------------14----------------------
A|----------13------14------------------------------
E|--12----------------------------------------------

Stave 2:

E|--18--19--18--16--------------------------
B|------------------17----------------------
G|----------------------16--15--16--15------
D|--------------------------------------18--
A|------------------------------------------
E|------------------------------------------

Stave 3:

E|--------------------------------------------------------------------------------------------------
B|--------------------------------------------------------------------------------------------------
G|--16--15--------------18--------------16----------------------------------------------------------
D|----------18--16--14------16--14--13------14--13--------------16----------------------------------
A|--------------------------------------------------16--14--13------14--13--------------16----------
E|--------------------------------------------------------------------------16--14--12------14--12--

http://www.guitartabcreator.com
Guitar Tab Creator is intended to store guitar tab created through the tool. It currently does not support in-line text editing. Any text you place in here will be lost. If you need to comment on your tab, please use the "Tab Notes" section located below.