Sound will begin in 5 seconds

Riff 1

Chords
01234567891011121314151617181920212223
E
B
G
D
A
E
B
0 1 2 3 4 5 6 7 8 9 10 11 12 13 14 15 16 17 18 19 20 21 22 23
Song Science #1: How Pros Use 6 Chords to Write Hit Songs
(/) Slide Up  (\) Slide Down  (h) Hammer On  (p) Pull Off  (b) Bend (r) Release (v) Vibrato

Stave 1:

E|--12-----10-----7-----8------|--3-----7-----8------5-----|--
B|--12-----10-----7-----8------|--3-----7-----8------5-----|--
G|--12-----11-----7-----9------|--4-----8-----9------6-----|--
D|--12-----10-----7-----8------|--3-----7-----8------5-----|--
A|--14-----12-----9-----10-----|--5-----9-----10-----7-----|--
E|--12-----10-----7-----8------|--3-----7-----8------5-----|--

Stave 2:

E|--------------------------|-----------------------|--
B|--------------------------|----------------12-----|--
G|----------------14b14-----|----------------12-----|--
D|---------12h14------------|---------12h14--12-----|--
A|--12h14-------------------|--12h14----------------|--
E|--------------------------|-----------------------|--

Stave 3:

E|--15p12------12-----------------|--17--19--17--15------15---------|--
B|---------15------15--12--13-----|------------------17------17-----|--
G|--------------------------------|---------------------------------|--
D|--------------------------------|---------------------------------|--
A|--------------------------------|---------------------------------|--
E|--------------------------------|---------------------------------|--

Stave 4:

E|---------------------|---------------------|------------------|------------------|--
B|---------------------|---------------------|------------------|------------------|--
G|---------------------|---------------------|------------------|------------------|--
D|---------------------|---------------------|------------------|------------------|--
A|---------------------|---------------------|------------------|------------------|--
E|--12--12--12--15-----|--10--10--10--14-----|--7--7--7--12-----|--8--8--8--14-----|--

Stave 5:

E|------15---------14---------10---------12-----|--
B|--17---------15---------12---------13---------|--
G|----------------------------------------------|--
D|----------------------------------------------|--
A|----------------------------------------------|--
E|----------------------------------------------|--

http://www.guitartabcreator.com
Guitar Tab Creator is intended to store guitar tab created through the tool. It currently does not support in-line text editing. Any text you place in here will be lost. If you need to comment on your tab, please use the "Tab Notes" section located below.