Sound will begin in 5 seconds

Groovy Rock Song (electric lead part)

Chords
01234567891011121314151617181920212223
E
B
G
D
A
E
B
0 1 2 3 4 5 6 7 8 9 10 11 12 13 14 15 16 17 18 19 20 21 22 23
Song Science #1: How Pros Use 6 Chords to Write Hit Songs
(/) Slide Up  (\) Slide Down  (h) Hammer On  (p) Pull Off  (b) Bend (r) Release (v) Vibrato

(W|WW) Whole (H|HH) Half (Q|QQ) Quarter (E|EE) 8th (S|SS) 16th (T|TT) 32nd (X|XX) 64th

Stave 1:
t: EE EE EE EE E E E
E|-----------------------
B|-----------------------
G|-7p5-------------------
D|-----7p5---------0-0-0-
A|---------7p5-----0-0-0-
D|-------------7p5-0-0-0-

Stave 2:
t: EE E E E E E E EE EE TTTTTTTT TTTTTTTT TTTTTTTT TTTTTTTT TTTTTTTT EE QQ
E|--------------------10-------------------------------------------------------------------
B|-------------8-9-10----13p12p11p10-13p12p11p10-13p12p11p10-13p12p11p10-13p12p11p10-10-12-
G|-9p7-----7-9-----------------------------------------------------------------------------
D|-----8-7---------------------------------------------------------------------------------
A|-----------------------------------------------------------------------------------------
D|-----------------------------------------------------------------------------------------

Stave 3:
t: EEEE E E E Q E E Q W W W
E|-----------------------------
B|-----------------------------
G|-----------------3-4-2-------
D|-----------------------2-2-2-
A|-5p4p3p2-0-------------2-2-2-
D|-----------3-4-0-------2-2-2-

http://www.guitartabcreator.com
Guitar Tab Creator is intended to store guitar tab created through the tool. It currently does not support in-line text editing. Any text you place in here will be lost. If you need to comment on your tab, please use the "Tab Notes" section located below.