Sound will begin in 5 seconds

Groovy Rock Song (acoustic part)

Chords
01234567891011121314151617181920212223
E
B
G
D
A
E
B
0 1 2 3 4 5 6 7 8 9 10 11 12 13 14 15 16 17 18 19 20 21 22 23
Song Science #1: How Pros Use 6 Chords to Write Hit Songs
(/) Slide Up  (\) Slide Down  (h) Hammer On  (p) Pull Off  (b) Bend (r) Release (v) Vibrato

Capo Fret 4

(W|WW) Whole (H|HH) Half (Q|QQ) Quarter (E|EE) 8th (S|SS) 16th (T|TT) 32nd (X|XX) 64th

Stave 1:
t: E E Q E E E Q E E E E E
E|--0--0--|--0--0--0--0--|--0--0--0--0--0--0--
B|--0--0--|--0--0--0--0--|--0--0--0--0--0--0--
G|--0--0--|--0--0--0--0--|--0--0--0--0--0--0--
D|--2--2--|--2--2--2--2--|--2--2--2--2--2--2--
A|--2--2--|--2--2--2--2--|--2--2--2--2--2--2--
E|--0--0--|--0--0--0--0--|--0--0--0--0--0--0--

Stave 2:
t: E E Q E E E Q E E E E E
E|--0--0--|--0--0--0--0--|--0--0--0--0--0--0--
B|--0--0--|--0--0--0--0--|--0--0--0--0--0--0--
G|--0--0--|--0--0--0--0--|--0--0--0--0--0--0--
D|--2--2--|--2--2--2--2--|--2--2--2--2--2--2--
A|--2--2--|--2--2--2--2--|--2--2--2--2--2--2--
E|--0--0--|--0--0--0--0--|--0--0--0--0--0--0--

Stave 3:
t: E E Q E E E Q E E E E E
E|--2--2--|--2--2--2--2--|--2--2--2--2--2--2--
B|--3--3--|--3--3--3--3--|--3--3--3--3--3--3--
G|--2--2--|--2--2--2--2--|--2--2--2--2--2--2--
D|--0--0--|--0--0--0--0--|--0--0--0--0--0--0--
A|--------|--------------|--------------------
E|--------|--------------|--------------------

Stave 4:
t: E E Q E E E Q E E E E E
E|--0--0--|--0--0--0--0--|--0--0--0--0--0--0--
B|--1--1--|--1--1--1--1--|--1--1--1--1--1--1--
G|--2--2--|--2--2--2--2--|--2--2--2--2--2--2--
D|--2--2--|--2--2--2--2--|--2--2--2--2--2--2--
A|--0--0--|--0--0--0--0--|--0--0--0--0--0--0--
E|--------|--------------|--------------------

Stave 5:
t: E E Q E E E Q E E E E E
E|--0--0--|--0--0--0--0--|--0--0--0--0--0--0--
B|--1--1--|--1--1--1--1--|--1--1--1--1--1--1--
G|--2--2--|--2--2--2--2--|--2--2--2--2--2--2--
D|--2--2--|--2--2--2--2--|--2--2--2--2--2--2--
A|--0--0--|--0--0--0--0--|--0--0--0--0--0--0--
E|--------|--------------|--------------------

Stave 6:
t: E E Q E H E E Q E H
E|--0--0--|--0--0--0--0--0--|--0--0--0--
B|--0--0--|--0--0--0--0--0--|--0--0--0--
G|--0--0--|--0--0--0--0--0--|--0--0--0--
D|--2--2--|--2--2--2--2--2--|--2--2--2--
A|--2--2--|--2--2--2--2--2--|--2--2--2--
E|--0--0--|--0--0--0--0--0--|--0--0--0--

Stave 7:
t: E E Q E H E E Q E H
E|--2--2--|--2--2--2--0--0--|--0--0--0--
B|--3--3--|--3--3--3--1--1--|--1--1--1--
G|--2--2--|--2--2--2--2--2--|--2--2--2--
D|--0--0--|--0--0--0--2--2--|--2--2--2--
A|--------|-----------0--0--|--0--0--0--
E|--------|-----------------|-----------

Stave 8:
t: W W W W
E|--------------
B|--------------
G|--------------
D|--2--2--2--2--
A|--2--2--2--2--
E|--0--0--0--0--

Stave 9:
t: W W W W
E|--------------
B|--------------
G|--------------
D|--2--2--2--2--
A|--0--0--0--0--
E|--------------

http://www.guitartabcreator.com
Guitar Tab Creator is intended to store guitar tab created through the tool. It currently does not support in-line text editing. Any text you place in here will be lost. If you need to comment on your tab, please use the "Tab Notes" section located below.