Sound will begin in 5 seconds

Flashback - Bass

01234567891011121314151617181920212223
E
B
G
D
A
E
B
0 1 2 3 4 5 6 7 8 9 10 11 12 13 14 15 16 17 18 19 20 21 22 23
Song Science #1: How Pros Use 6 Chords to Write Hit Songs
(/) Slide Up  (\) Slide Down  (h) Hammer On  (p) Pull Off  (b) Bend (r) Release (v) Vibrato

Stave 1:

F|---------------------------------------
C|---------------------------------------
G|--0/7v----0/7v----7\3v----3/5v----5\0--
C|---------------------------------------

Stave 2:

F|----------------------------------------------------------9v--\0--
C|-------------------------------------------------------9----------
G|--0/7--7--7--7--7--7--7----0/7--7--7--7--7--7--7----7-------------
C|------------------------------------------------------------------

Stave 3:

F|-----------------------------------------------
C|-----------------------------------------------
G|--3--3--3--3--3--3--3----5--5--5--5--5--5--5v--
C|-----------------------------------------------

Stave 4:

F|---------------------------------------------------------------------------------------------------
C|---------------------------------------------------------------------------------------------------
G|--12--------12--------10h12--13--------13--------10h12--8--------8--------8h10--7--------7-----7v--
C|------0--0------0--0-------------0--0------0--0------------0--0-----0--0-----------0--0-----0------

Stave 5:

F|--------------------------------------------------------------------------------------------------7--
C|-----------------------------------------------------------------------------------------------------
G|--12--------12--------10h12--13--------13--------10h12--8--------8--------8h10--5--------5-----5-----
C|------0--0------0--0-------------0--0------0--0------------0--0-----0--0-----------0--0-----0--------

Stave 6:

F|--------------------------------------------------------------------------------------------------
C|--------------------------------------------------------------------------------------------------
G|--------8--8--7--7--5--5--------8--8--7--7--3--3--------8--8--7--7--5--5--8--8--7--7--5--7--3--5--
C|--0--0--------------------0--0--------------------0--0--------------------------------------------

Stave 7:

F|--------------------------------------------------------------------------------------------------
C|--------------------------------------------------------------------------------------------------
G|--------8--8--7--7--5--5--------8--8--7--7--3--3--------8--8--7--7--5--5--8--8--7--7--5--7--3--5--
C|--0--0--------------------0--0--------------------0--0--------------------------------------------

Stave 8:

F|------------------------------------------------------------------------------------------------------
C|------------------------------------------------------------------------------------------------------
G|--------8--8--7--7--10--10--------8--8--7--7--12--12--------8--8--7--7--5--5--8--8--7--7--5--7--3--5--
C|--0--0----------------------0--0----------------------0--0--------------------------------------------

Stave 9:

F|----------------------------------------------------
C|------------------------------10h12p10--------------
G|----------------------------------------12--10------
C|--12--12--12--12--12--12--12--------------------12--

Stave 10:

F|---------------------------------------------------
C|------------------------------10------10------10v--
G|---------------------------------------------------
C|--10--10--10--10--10--10--10------10------10-------

Stave 11:

F|------------------------------------
C|----------------------------5-------
G|-----------------------5h7-----7p5--
C|--8--8--8--8--8--8--8---------------

Stave 12:

F|---------------------------------5\14--
C|----------------------------5h7--------
G|-----------------------5h7-------------
C|--7--7--7--7--7--7--7------------------

Stave 13:

F|------------------------------------------
C|--------------15--14--------------17--15--
G|------------------------------------------
C|--12--12--12----------12--12--12----------

Stave 14:

F|------------------------------------------
C|--------------14--12--------------15--14--
G|------------------------------------------
C|--10--10--10----------10--10--10----------

Stave 15:

F|--------------------------------
C|-----------8--8-----------8--8--
G|--------------------------------
C|--8--8--8--------8--8--8--------

Stave 16:

F|------------------------------------
C|-----------7--7----------------5h7--
G|--------------------------5h7-------
C|--7--7--7--------7--7--7------------

http://www.guitartabcreator.com
Guitar Tab Creator is intended to store guitar tab created through the tool. It currently does not support in-line text editing. Any text you place in here will be lost. If you need to comment on your tab, please use the "Tab Notes" section located below.