Sound will begin in 5 seconds

sam3

Chords
01234567891011121314151617181920212223
E
B
G
D
A
E
B
0 1 2 3 4 5 6 7 8 9 10 11 12 13 14 15 16 17 18 19 20 21 22 23
Song Science #1: How Pros Use 6 Chords to Write Hit Songs
(/) Slide Up  (\) Slide Down  (h) Hammer On  (p) Pull Off  (b) Bend (r) Release (v) Vibrato

(W|WW) Whole (H|HH) Half (Q|QQ) Quarter (E|EE) 8th (S|SS) 16th (T|TT) 32nd (X|XX) 64th

Stave 1:
t: E E E QQ EE E E E E E QQ E E E E E E
E|----8----8----8---------------------8----8----8----8----11----8----8----8----8----8----8----
B|----8----8----8----11----11----8----8----8----8----8----8-----8----8----8----8----8----8----
G|--------------------------------------------------------------------------------------------
D|--------------------------------------------------------------------------------------------
A|--------------------------------------------------------------------------------------------
E|--------------------------------------------------------------------------------------------

Stave 2:
t: EE E E E E EE E E E E E E E E E E E
E|----------8----8----8----8----11----8----8----8----8----8----8----8----8----1----1----1----
B|----10----8----8----8----8----11----8----8----8----8----8----8----8----8----1----1----1----
G|-------------------------------------------------------------------------------------------
D|-------------------------------------------------------------------------------------------
A|-------------------------------------------------------------------------------------------
E|-------------------------------------------------------------------------------------------

Stave 3:
t: E E E E E E E E E E E E E E QQ Q Q Q
E|---------1----1----1----1----1------------------------8----8----8----8----------8----8----8----
B|----4----1----1----1----1----1----4----1----4----4----8----8----8----8----11----8----8----8----
G|-----------------------------------------------------------------------------------------------
D|-----------------------------------------------------------------------------------------------
A|-----------------------------------------------------------------------------------------------
E|-----------------------------------------------------------------------------------------------

Stave 4:
t: E Q E E E E E E E Q E E E E E E E E
E|----8----8----3----3----3----3----3----3----3----3----1----1----1----1---------1----1----1----
B|----8----8----3----3----3----3----3----3----3----3----1----1----1----1----4----1----1----1----
G|----------------------------------------------------------------------------------------------
D|----------------------------------------------------------------------------------------------
A|----------------------------------------------------------------------------------------------
E|----------------------------------------------------------------------------------------------

Stave 5:
t: E E E E EE E Q E EE E EE E E E
E|----8----8----8----8----------8----8-----------------------------------------
B|----8----8----8----8----11----8----8-----------------------------------------
G|----------------------------------------8----10----8----10----8----8----8----
D|-----------------------------------------------------------------------------
A|-----------------------------------------------------------------------------
E|-----------------------------------------------------------------------------

http://www.guitartabcreator.com
Guitar Tab Creator is intended to store guitar tab created through the tool. It currently does not support in-line text editing. Any text you place in here will be lost. If you need to comment on your tab, please use the "Tab Notes" section located below.