Sound will begin in 5 seconds

sam1

Chords
01234567891011121314151617181920212223
E
B
G
D
A
E
B
0 1 2 3 4 5 6 7 8 9 10 11 12 13 14 15 16 17 18 19 20 21 22 23
Song Science #1: How Pros Use 6 Chords to Write Hit Songs
(/) Slide Up  (\) Slide Down  (h) Hammer On  (p) Pull Off  (b) Bend (r) Release (v) Vibrato

Stave 1:

E|-----------------------------------------------------------------------------
B|--------0--------------------------------------------------------------------
G|--0--3-----5--5--5--3--------3--4--5--5--5--3--------3--4--5--5--5--3--------
D|-----------------------5--5--------------------5--5--------------------5--5--
A|-----------------------------------------------------------------------------
E|-----------------------------------------------------------------------------

Stave 2:

E|-----------------------------------------------------------------------------
B|-----------------------------------------------------------------------------
G|--3--4--5--5--5--3---------8--9--10--10--10--8----------8--9--10--10--10--8--
D|--------------------5--10-----------------------10--10-----------------------
A|-----------------------------------------------------------------------------
E|-----------------------------------------------------------------------------

Stave 3:

E|--------------------------------------------------------------------------------
B|--------------------------------------------------------------------------------
G|---------3--4--5--5--5--3--------3--4--5--5--5--3--0-----8--10--12--12--12--10--
D|--10--5--------------------5--5-------------------------------------------------
A|------------------------------------------------------6-------------------------
E|--------------------------------------------------------------------------------

Stave 4:

E|---------------------------------------------------------------------------------------------
B|---------------------------------------------------------------------------------------------
G|----------12-----10--10--10--8---------3--3--5--5--5--3--------5--3-----------------------0--
D|--12--12------------------------10-----------------------5--5--------5--5--5--5-----5--5--0--
A|---------------------------------------------------------------------------------------------
E|---------------------------------------------------------------------------------------------

http://www.guitartabcreator.com
Guitar Tab Creator is intended to store guitar tab created through the tool. It currently does not support in-line text editing. Any text you place in here will be lost. If you need to comment on your tab, please use the "Tab Notes" section located below.