sway bic runga

Chords

01234567891011121314151617181920212223
E
B
G
D
A
E
B
0 1 2 3 4 5 6 7 8 9 10 11 12 13 14 15 16 17 18 19 20 21 22 23
(/) Slide Up  (\) Slide Down  (h) Hammer On  (p) Pull Off  (b) Bend (r) Release (v) Vibrato

Capo Fret 2

Stave 1:

E|--------------------------|--------------0--------|-----------------------------------------------------------
B|--------------3-----------|-----------0--------0--|--3-----------------------3--1--0--1-----------------------
G|--0-----0-----------0--0--|-----0-----------0-----|--------0-----2--2--0-----------------2--2--0--2--0-----0--
D|-----0-----0-----0--------|--4-----4--------------|-----0-----0-----------0-----------------------0-----0-----
A|--------------------------|--2-----------2--------|--3-----------2--------0--3--------3--0--------------------
E|--3-----------3-----------|-----------------------|-----------------------------------------------------------

Stave 2:

E|--------------------------|--------------0--------|-------------------------------------------------------
B|--------------3-----------|-----------0--------0--|--3-----------------------3--1--0--1-------------------
G|--0-----0-----------0--0--|-----0-----------0-----|--------0-----2--2--0-----------------2--2--0--2-----2b
D|-----0-----0-----0--------|--4-----4--------------|-----0-----0-----------0-----------------------0--0----
A|--------------------------|--2-----------2--------|--3-----------2--------0--3--------3--0----------------
E|--3-----------3-----------|-----------------------|-------------------------------------------------------

Stave 3:

E|-------2-----|----------2--------------------------------
B|---b5--------|-----5b5-----------------------------------
G|--4-------4--|-------------4-----0--2--4--------4-----0--
D|-------------|--0-------------0-----------0--------0-----
A|----------2--|-------------3-----------------0-----------
E|--0----------|-------------------------3-----------------

Stave 4:

E|-----3-----2-----2/5--3-----------------------------------
B|--------3-----3-------------0-----------------------------
G|--0----------------------0--------0--2--4--------4-----0--
D|-----------4-------------------0-----------0--------0-----
A|----------------------------------------------0-----------
E|--3-------------------0-----------------3-----------------

Stave 5:

E|-----3-----2--------2/5--3-----------------------
B|--------3-----3--3-------------0-----------------
G|--0-------------------------0--------0--2--2--0--
D|-----------4----------------------0--------------
A|-------------------------------------------------
E|--3----------------------0--------------------3--

							http://www.guitartabcreator.com
Instruments
{"strings":[[[".",".",".",".",".",".",".",".","|",".",".",".",".",0,".",".","|",".",".",".",".",".",".",".",".",".",".",".",".",".",".",".",".",".",".","."],[".",".",".",".",3,".",".",".","|",".",".",".",0,".",".",0,"|",3,".",".",".",".",".",".",".",3,1,0,1,".",".",".",".",".",".","."],[0,".",0,".",".",".",0,0,"|",".",0,".",".",".",0,".","|",".",".",0,".",2,2,0,".",".",".",".",".",2,2,0,2,0,".",0],[".",0,".",0,".",0,".",".","|",4,".",4,".",".",".",".","|",".",0,".",0,".",".",".",0,".",".",".",".",".",".",".",0,".",0,"."],[".",".",".",".",".",".",".",".","|",2,".",".",".",2,".",".","|",3,".",".",".",2,".",".",0,3,".",".",3,0,".",".",".",".",".","."],[3,".",".",".",3,".",".",".","|",".",".",".",".",".",".",".","|",".",".",".",".",".",".",".",".",".",".",".",".",".",".",".",".",".",".","."]],[[".",".",".",".",".",".",".",".","|",".",".",".",".",0,".",".","|",".",".",".",".",".",".",".",".",".",".",".",".",".",".",".",".",".",".","."],[".",".",".",".",3,".",".",".","|",".",".",".",0,".",".",0,"|",3,".",".",".",".",".",".",".",3,1,0,1,".",".",".",".",".",".","."],[0,".",0,".",".",".",0,0,"|",".",0,".",".",".",0,".","|",".",".",0,".",2,2,0,".",".",".",".",".",2,2,0,2,".",2,"b"],[".",0,".",0,".",0,".",".","|",4,".",4,".",".",".",".","|",".",0,".",0,".",".",".",0,".",".",".",".",".",".",".",0,0,".",0],[".",".",".",".",".",".",".",".","|",2,".",".",".",2,".",".","|",3,".",".",".",2,".",".",0,3,".",".",3,0,".",".",".",".",".","."],[3,".",".",".",3,".",".",".","|",".",".",".",".",".",".",".","|",".",".",".",".",".",".",".",".",".",".",".",".",".",".",".",".",".",".","."]],[[".",".",".",2,".","|",".",".",".",".",2,".",".",".",".",".",".",".",".",".","."],[".","b",5,".",".","|",".",5,"b",5,".",".",".",".",".",".",".",".",".",".","."],[4,".",".",".",4,"|",".",".",".",".",".",4,".",0,2,4,".",".",4,".",0],[".",".",".",".",".","|",0,".",".",".",".",".",0,".",".",".",0,".",".",0,"."],[".",".",".",".",2,"|",".",".",".",".",".",3,".",".",".",".",".",0,".",".","."],[0,".",".",".",".","|",".",".",".",".",".",".",".",".",".",3,".",".",".",".","."]],[[".",3,".",2,".",2,"/",5,3,".",".",".",".",".",".",".",".",".",".","."],[".",".",3,".",3,".",".",".",".",".",0,".",".",".",".",".",".",".",".","."],[0,".",".",".",".",".",".",".",".",0,".",".",0,2,4,".",".",4,".",0],[".",".",".",4,".",".",".",".",".",".",".",0,".",".",".",0,".",".",0,"."],[".",".",".",".",".",".",".",".",".",".",".",".",".",".",".",".",0,".",".","."],[3,".",".",".",".",".",".",".",0,".",".",".",".",".",3,".",".",".",".","."]],[[".",3,".",2,".",".",2,"/",5,3,".",".",".",".",".",".","."],[".",".",3,".",3,3,".",".",".",".",".",0,".",".",".",".","."],[0,".",".",".",".",".",".",".",".",".",0,".",".",0,2,2,0],[".",".",".",4,".",".",".",".",".",".",".",".",0,".",".",".","."],[".",".",".",".",".",".",".",".",".",".",".",".",".",".",".",".","."],[3,".",".",".",".",".",".",".",".",0,".",".",".",".",".",".",3]]],"numberofstrings":6,"notes":["E","B","G","D","A","E","B"],"capo":"2","stringnotes":["E4","B3","G3","D3","A2","E2"],"comments":["Stave 1:","Stave 2:","Stave 3:","Stave 4:","Stave 5:"],"timing":[["W","W","W","W","W","W","W","W",null,"W","W","W","W","W","W","W","W","W","W","W","W","W","W","W","W","W","W","W","W","W","W","W","W","W","W","W","W","W","W","W"],["W","W","W","W","W","W","W","W",null,"W","W","W","W","W","W","W",null,"W","W","W","W","W","W","W","W","W","W","W","W","W","W","W","W","W","W","W"],["W","W","W","W","W","W","W","W","W","W","W","W","W","W","W","W","W","W","W",null,"W"],["W","W","W","W","W","W","W",null,"W","W","W","W","W","W","W","W","W","W","W","W"],["W","W","W","W","W","W",null,"W","W","W","W","W","W","W","W","W","W","W"]],"timingvisible":false,"tabcounter":17,"stave":4,"totalstaves":5,"instrument":"6guitar","selectedtuning":"6_standard","version":"13"}

Member for

2 months
Submitted by sailendraaaaaa on Tue, 2020-06-30 05:40