Bunda Melly Goeslaw

01234567891011121314151617181920212223
E
B
G
D
A
E
B
0 1 2 3 4 5 6 7 8 9 10 11 12 13 14 15 16 17 18 19 20 21 22 23
(/) Slide Up  (\) Slide Down  (h) Hammer On  (p) Pull Off  (b) Bend (r) Release (v) Vibrato

Stave 1:

E|--0--1--3--0-----1--3--0-----------------------|--------0-----------0--------------------------|--
B|-----------------------------------1-----------|--1--3-----1-----3-----1--------1-----0-----0--|--
G|--------------------------------0-----0-----0--|-----------------------------2-----2-----0-----|--
D|-----------------------------2-----------0-----|--3-----------2-----------0--------------------|--
A|--3-----------2-----------0--------------------|-----------------------------------------------|--
E|--------------------------------------3--------|--------------------------------------3--------|--

Stave 2:

E|-----------0--------------------------------------1--------------------|--
B|--0--0--0-----0--3--3--1--0--1-----------1--1--1-----1--1--1-----3--3--|--
G|--------------------------------------0--------------------------------|--
D|-----------------------------------0-----3--------------------0--------|--
A|--------------------0--------------------------------------------------|--
E|--0-----------------------------3--------------------------3-----------|--

Stave 3:

E|-----------0-----------------------------------------------------------0-----------
B|--0--0--0-----0--3--3--1--0--1-----------1--1--1--1--0--1--------1--------1-----1--
G|--------------------------------------0-----------------------0-----0--------0-----
D|-----------------------------------0-----3-----------------0-----------------------
A|--------------------0--------------------------------------------------------------
E|--0-----------------------------3-----------------3--------------------------------

Stave 4:

E|--------------------------------------0--1--------0-----0--1--0--
B|-----------------------0-----3--1--3-----------3-----3-----------
G|--2--------4--------------0-----------------2--------------------
D|--------3-----------5--------------------0-----------------------
A|-----3-----------3--------------0-----------------------------3--
E|--1-----------3--------0-----------------------------3-----------

Stave 5:

E|--------------------------------------------------0-----0--1--3-----------3--
B|-----------------------------------------------------3-----------------0-----
G|--------------------------------------------------------------------0--------
D|-----------------------------------------------------------------0-----------
A|-----------------------------------------------------------------------------
E|--------------------------------------------------------------3--------------

Stave 6:

E|--0--1--3--0-----1--3--0-----1--3--0-----1--3--5--5--5--5--7--8--10--10--10--8--7--8---------------8--
B|------------------------------------------------------------------------------------------------8-----
G|---------------------------------------------------------------------------------------------9--------
D|-----------------------------------------------3-----------------0-----------------------10-----------
A|--3-----------2-----------0-----------3---------------------------------------------------------------
E|--------------------------------------------------------------------------------------8---------------

							http://www.guitartabcreator.com
Chords

Instruments
{"strings":[[[0,1,3,0,".",1,3,0,".",".",".",".",".",".",".","|",".",".",0,".",".",".",0,".",".",".",".",".",".",".",".","|"],[".",".",".",".",".",".",".",".",".",".",".",1,".",".",".","|",1,3,".",1,".",3,".",1,".",".",1,".",0,".",0,"|"],[".",".",".",".",".",".",".",".",".",".",0,".",0,".",0,"|",".",".",".",".",".",".",".",".",".",2,".",2,".",0,".","|"],[".",".",".",".",".",".",".",".",".",2,".",".",".",0,".","|",3,".",".",".",2,".",".",".",0,".",".",".",".",".",".","|"],[3,".",".",".",2,".",".",".",0,".",".",".",".",".",".","|",".",".",".",".",".",".",".",".",".",".",".",".",".",".",".","|"],[".",".",".",".",".",".",".",".",".",".",".",".",3,".",".","|",".",".",".",".",".",".",".",".",".",".",".",".",3,".",".","|"]],[[".",".",".",0,".",".",".",".",".",".",".",".",".",".",".",".",1,".",".",".",".",".",".","|"],[0,0,0,".",0,3,3,1,0,1,".",".",".",1,1,1,".",1,1,1,".",3,3,"|"],[".",".",".",".",".",".",".",".",".",".",".",".",0,".",".",".",".",".",".",".",".",".",".","|"],[".",".",".",".",".",".",".",".",".",".",".",0,".",3,".",".",".",".",".",".",0,".",".","|"],[".",".",".",".",".",".",0,".",".",".",".",".",".",".",".",".",".",".",".",".",".",".",".","|"],[0,".",".",".",".",".",".",".",".",".",3,".",".",".",".",".",".",".",".",3,".",".",".","|"]],[[".",".",".",0,".",".",".",".",".",".",".",".",".",".",".",".",".",".",".",".",".",".",".",0,".",".","."],[0,0,0,".",0,3,3,1,0,1,".",".",".",1,1,1,1,0,1,".",".",1,".",".",1,".",1],[".",".",".",".",".",".",".",".",".",".",".",".",0,".",".",".",".",".",".",".",0,".",0,".",".",0,"."],[".",".",".",".",".",".",".",".",".",".",".",0,".",3,".",".",".",".",".",0,".",".",".",".",".",".","."],[".",".",".",".",".",".",0,".",".",".",".",".",".",".",".",".",".",".",".",".",".",".",".",".",".",".","."],[0,".",".",".",".",".",".",".",".",".",3,".",".",".",".",".",3,".",".",".",".",".",".",".",".",".","."]],[[".",".",".",".",".",".",".",".",".",".",".",".",0,1,".",".",0,".",0,1,0],[".",".",".",".",".",".",".",0,".",3,1,3,".",".",".",3,".",3,".",".","."],[2,".",".",4,".",".",".",".",0,".",".",".",".",".",2,".",".",".",".",".","."],[".",".",3,".",".",".",5,".",".",".",".",".",".",0,".",".",".",".",".",".","."],[".",3,".",".",".",3,".",".",".",".",0,".",".",".",".",".",".",".",".",".",3],[1,".",".",".",3,".",".",0,".",".",".",".",".",".",".",".",".",3,".",".","."]],[["_","_","_","_","_","_","_","_","_","_","_","_","_","_","_","_",0,".",0,1,3,".",".",".",3],["_","_","_","_","_","_","_","_","_","_","_","_","_","_","_","_",".",3,".",".",".",".",".",0,"."],["_","_","_","_","_","_","_","_","_","_","_","_","_","_","_","_",".",".",".",".",".",".",0,".","."],["_","_","_","_","_","_","_","_","_","_","_","_","_","_","_","_",".",".",".",".",".",0,".",".","."],["_","_","_","_","_","_","_","_","_","_","_","_","_","_","_","_",".",".",".",".",".",".",".",".","."],["_","_","_","_","_","_","_","_","_","_","_","_","_","_","_","_",".",".",".",".",3,".",".",".","."]],[[0,1,3,0,".",1,3,0,".",1,3,0,".",1,3,5,5,5,5,7,8,10,10,10,8,7,8,".",".",".",".",8],[".",".",".",".",".",".",".",".",".",".",".",".",".",".",".",".",".",".",".",".",".",".",".",".",".",".",".",".",".",".",8,"."],[".",".",".",".",".",".",".",".",".",".",".",".",".",".",".",".",".",".",".",".",".",".",".",".",".",".",".",".",".",9,".","."],[".",".",".",".",".",".",".",".",".",".",".",".",".",".",".",3,".",".",".",".",".",0,".",".",".",".",".",".",10,".",".","."],[3,".",".",".",2,".",".",".",0,".",".",".",3,".",".",".",".",".",".",".",".",".",".",".",".",".",".",".",".",".",".","."],[".",".",".",".",".",".",".",".",".",".",".",".",".",".",".",".",".",".",".",".",".",".",".",".",".",".",".",8,".",".",".","."]]],"numberofstrings":6,"notes":["E","B","G","D","A","E","B"],"capo":0,"stringnotes":["E4","B3","G3","D3","A2","E2"],"comments":["Stave 1:","Stave 2:","Stave 3:","Stave 4:","Stave 5:","Stave 6:"],"timing":[["W","W","W","W","W","W","W","W","W","W","W","W","W","W","W","W","W","W","W","W","W","W","W","W","W","W","W","W","W","W","W","W","W","W","W","W","W","W","W","W","W","W"],["W","W","W","W","W","W","W","W","W","W","W","W","W","W","W","W","W","W","W","W","W","W","W","W"],["W","W","W","W","W","W","W","W","W","W","W","W","W","W","W","W","W","W","W","W","W","W","W","W","W","W","W"],["W","W","W","W","W","W","W","W","W","W","W","W","W","W","W","W","W","W","W","W","W","W"],[null,null,null,null,null,null,null,null,null,null,null,null,null,null,null,"W","W","W","W","W","W","W","W","W","W","W","W"],["W","W","W","W","W","W","W","W","W","W","W","W","W","W","W","W","W","W","W","W","W","W","W","W","W","W","W","W","W","W","W","W","W","W"]],"timingvisible":false,"tabcounter":32,"stave":5,"totalstaves":6,"instrument":"6guitar","selectedtuning":"6_standard","version":"13"}

Member for

8 months 2 weeks
Submitted by sailendraaaaaa on Thu, 2020-11-26 05:04