Sound will begin in 5 seconds

Ancient Wars

01234567891011121314151617181920212223
E
B
G
D
A
E
B
0 1 2 3 4 5 6 7 8 9 10 11 12 13 14 15 16 17 18 19 20 21 22 23
Song Science #1: How Pros Use 6 Chords to Write Hit Songs
(/) Slide Up  (\) Slide Down  (h) Hammer On  (p) Pull Off  (b) Bend (r) Release (v) Vibrato

Stave 1:

B|-----------------------------------
G|-----------------------------------
D|-----------------------------------
A|--------3-----------------0--2--0--
E|--5-----------1-----3--------------

Stave 2:

B|-----------------------------------
G|-----------------------------------
D|-----------------------------------
A|--------3-----------------0--2--0--
E|--------------1-----3--------------

Stave 3:

B|-----------------------------------
G|-----------------------------------
D|-----------------------------------
A|--------3-----------3--2--3--0-----
E|--5-----------1--------------------

Stave 4:

B|--------------------------
G|--------------------------
D|--------------------------
A|--2-----0-----2-----3--5--
E|--------------------------

Stave 5:

B|--------------------------------
G|--------------------------------
D|--------------------------------
A|--2-----0-----2-----------------
E|--------------------1-----3-----

Stave 6:

B|--------------------------|--------------------------|----------------------------------
G|--------------------------|--------------------------|-------------------------------5--
D|--------2--3--5--3--2--0--|--------------------------|--------------------------4/5-----
A|--3--5--------------------|--------2--3--5--3--2--0--|--8-----8--8--8--7--5--3----------
E|--------------------------|--3--5--------------------|----------------------------------

Stave 7:

B|-------------------------|-----------------------------------------------------------|--
G|-------------------------|------------------------------------------9h10-------------|--
D|---------7--9--10--9--7--|----------9--10--12--10--9h10-----10--10--------12--10-----|--
A|--8--10------------------|--10--12---------------------------------------------------|--
E|-------------------------|--------------------------------------------------------12\|--

Stave 8:

B|--------------------------------------------------------------
G|--------------------------------------------------------------
D|--------------------------------------------------------------
A|--------------------------------------------------------------
E|--5--5-----0--3--5--5-----0--3--5--5-----0--3--5--5-----0--1--

Stave 9:

B|--------------------------------------------------------------
G|--------------------------------------------------------------
D|--------------------------------------------------------------
A|--------------------------------------------------------------
E|--3--3-----0--1--3--3-----0--1--3--3-----0--1--3--3-----0--3--

Stave 10:

B|--------------------------------------------------------
G|--------------------------------------------------------
D|--------------------------------------------------------
A|--------------------------------------------------------
E|--5--5-----0--3--5--5-----0--3--5--5-----0--3--5--5-----

Stave 11:

B|----------------|----------------------------
G|----------------|----------------------------
D|----------------|----------------------------
A|----------------|----------------------------
E|--0--3--5--3\1--|--1--1--0h1--1--0h1/3--3--8\

Stave 12:

B|-----------------------------------------------------------------------------------
G|-----------------------------------------------------------------------------------
D|-----------------------------------------------------------------------------------
A|--------------------------------------0--3--3--0--2--2-----------------------------
E|--5--0--5--0--1--0--1--0--3--0--3--0--------------------5--0--5--0--1--0--1--0--3--

Stave 13:

B|----------------------
G|----------------------
D|--5h7p5---------------
A|---------7--5\3-------
E|-----------------3/5--

Stave 14:

B|------------------------------------------|--
G|------------------------------------------|--
D|------------------------------------------|--
A|-----------8--7--5-----5--7-----8p7p5-----|--
E|--5--7--8-----------8------------------8--|--

http://www.guitartabcreator.com
Guitar Tab Creator is intended to store guitar tab created through the tool. It currently does not support in-line text editing. Any text you place in here will be lost. If you need to comment on your tab, please use the "Tab Notes" section located below.