key learning

Chords

01234567891011121314151617181920212223
E
B
G
D
A
E
B
0 1 2 3 4 5 6 7 8 9 10 11 12 13 14 15 16 17 18 19 20 21 22 23
(/) Slide Up  (\) Slide Down  (h) Hammer On  (p) Pull Off  (b) Bend (r) Release (v) Vibrato

Stave 1:A

E|-------------------5--5-------------------
B|---------------10--------10---------------
G|------------2----------------2------------
D|---------7----------------------7---------
A|-----12----------------------------12-----
E|--5------------------------------------5--

Stave 2:B

E|---------------------7--7------------------
B|-----------------12--------12--------------
G|--------------4----------------4-----------
D|-----------9----------------------9--------
A|--------2----------------------------2-----
E|-----7----------------------------------7--

Stave 3:C

E|------------------8--8------------------
B|---------------1--------1---------------
G|------------5--------------5------------
D|--------10--------------------10--------
A|-----3----------------------------3-----
E|--8----------------------------------8--

Stave 4:D

E|-------------------10--10-------------------
B|----------------3----------3----------------
G|-------------7----------------7-------------
D|---------12----------------------12---------
A|------5------------------------------5------
E|--10------------------------------------10--

Stave 5:E

E|------------------12--12------------------
B|---------------5----------5---------------
G|------------9----------------9------------
D|---------2----------------------2---------
A|------7----------------------------7------
E|--12----------------------------------12--

Stave 6:F

E|------------------1--1------------------
B|---------------6--------6---------------
G|-----------10--------------10-----------
D|--------3----------------------3--------
A|-----8----------------------------8-----
E|--1----------------------------------1--

Stave 7:G

E|-------------------3--3-------------------
B|----------------8--------8----------------
G|------------12--------------12------------
D|---------5----------------------5---------
A|-----10----------------------------10-----
E|--3------------------------------------3--

							http://www.guitartabcreator.com
Instruments
{"strings":[[[".",".",".",".",".",5,5,".",".",".",".","."],[".",".",".",".",10,".",".",10,".",".",".","."],[".",".",".",2,".",".",".",".",2,".",".","."],[".",".",7,".",".",".",".",".",".",7,".","."],[".",12,".",".",".",".",".",".",".",".",12,"."],[5,".",".",".",".",".",".",".",".",".",".",5]],[["_",".",".",".",".",".",7,7,".",".",".",".","."],["_",".",".",".",".",12,".",".",12,".",".",".","."],["_",".",".",".",4,".",".",".",".",4,".",".","."],["_",".",".",9,".",".",".",".",".",".",9,".","."],["_",".",2,".",".",".",".",".",".",".",".",2,"."],["_",7,".",".",".",".",".",".",".",".",".",".",7]],[[".",".",".",".",".",8,8,".",".",".",".","."],[".",".",".",".",1,".",".",1,".",".",".","."],[".",".",".",5,".",".",".",".",5,".",".","."],[".",".",10,".",".",".",".",".",".",10,".","."],[".",3,".",".",".",".",".",".",".",".",3,"."],[8,".",".",".",".",".",".",".",".",".",".",8]],[[".",".",".",".",".",10,10,".",".",".",".","."],[".",".",".",".",3,".",".",3,".",".",".","."],[".",".",".",7,".",".",".",".",7,".",".","."],[".",".",12,".",".",".",".",".",".",12,".","."],[".",5,".",".",".",".",".",".",".",".",5,"."],[10,".",".",".",".",".",".",".",".",".",".",10]],[[".",".",".",".",".",12,12,".",".",".",".","."],[".",".",".",".",5,".",".",5,".",".",".","."],[".",".",".",9,".",".",".",".",9,".",".","."],[".",".",2,".",".",".",".",".",".",2,".","."],[".",7,".",".",".",".",".",".",".",".",7,"."],[12,".",".",".",".",".",".",".",".",".",".",12]],[[".",".",".",".",".",1,1,".",".",".",".","."],[".",".",".",".",6,".",".",6,".",".",".","."],[".",".",".",10,".",".",".",".",10,".",".","."],[".",".",3,".",".",".",".",".",".",3,".","."],[".",8,".",".",".",".",".",".",".",".",8,"."],[1,".",".",".",".",".",".",".",".",".",".",1]],[[".",".",".",".",".",3,3,".",".",".",".","."],[".",".",".",".",8,".",".",8,".",".",".","."],[".",".",".",12,".",".",".",".",12,".",".","."],[".",".",5,".",".",".",".",".",".",5,".","."],[".",10,".",".",".",".",".",".",".",".",10,"."],[3,".",".",".",".",".",".",".",".",".",".",3]]],"numberofstrings":6,"notes":["E","B","G","D","A","E","B"],"capo":0,"stringnotes":["E4","B3","G3","D3","A2","E2"],"comments":["Stave 1:A","Stave 2:B","Stave 3:C","Stave 4:D","Stave 5:E","Stave 6:F","Stave 7:G"],"timing":[["W","W","W","W","W","W","W","W","W","W","W","W",null,"W","W","W","W","W","W","W","W","W","W","W","W","W","W","W","W","W","W","W","W","W","W","W","W","W","W","W","W","W","W","W","W","W","W","W","W","W","W"],[null,"W","W","W","W","W","W","W","W","W","W","W","W"],["W","W","W","W","W","W","W","W","W","W","W","W"],["W","W","W","W","W","W","W","W","W","W","W","W"],["W","W","W","W","W","W","W","W","W","W","W","W"],["W","W","W","W","W","W","W","W","W","W","W","W"],["W","W","W","W","W","W","W","W","W","W","W","W"]],"timingvisible":false,"tabcounter":12,"stave":6,"totalstaves":7,"instrument":"6guitar","selectedtuning":"6_standard","version":"13"}

Member for

1 month 2 weeks
Submitted by safehav3n on Mon, 2020-10-19 08:51