Sound will begin in 5 seconds

Queen - Bohemian Rhapsody 2:53

Chords
01234567891011121314151617181920212223
E
B
G
D
A
E
B
0 1 2 3 4 5 6 7 8 9 10 11 12 13 14 15 16 17 18 19 20 21 22 23
(/) Slide Up  (\) Slide Down  (h) Hammer On  (p) Pull Off  (b) Bend (r) Release (v) Vibrato

Queen - Bohemian Rhapsody

E|-3-3-3-3-|-3-3-3-3-0-0-|-2-2-2-3-2-----|-3-3-3-3--------|-
B|-3-3-3-3-|-2-2-3-2-2-2-|-1-1-1-1-1-----|-0-0-1-0-3-3----|-
G|-0-0-0-0-|-2-2-2-0-0-0-|-2-2-2-2-2-0-0-|-0-0-2-0-5-4----|-
D|-2-2-2-2-|-2-2-2-2-2-2-|-0-0-0-2-0-----|-0-------4-5----|-
A|---------|-------------|---------------|----------------|-
E|---------|-------------|---------------|----------------|-



E|-----------------|---------------|-0-------------|-0-0-0-0---0---|-
B|-0-0-0-0-------0-|-0-0-1-3-------|-1-------1---1-|-1---------1---|-
G|-0-----------0---|-0---------0---|-0---0-2---0---|-2---------2---|-
D|-2---------2-----|-3---------0---|---2---3---2---|---------------|-
A|-----------------|-------------2-|-3-------------|-0-------0---0-|-
E|-0-------0-------|-3-------3-----|---------------|---------------|-



E|-----0-----------0-|-4-4-3-2-2-3-|-4-4-3-2-2-3-|-0-0-0-0---3-|-
B|-3-3---3-1-----1---|-4-4-3-2-2-3-|-4-4-3-2-2-3-|-1-------3---|-
G|-2---------2-2-----|-5-5-4-3-3-4-|-5-5-4-3-3-4-|-0-------0---|-
D|-0---------0-------|-------------|-------------|---------0---|-
A|-------------------|-------------|-------------|-3-------2---|-
E|-------------------|-------------|-------------|-------------|-

Stave 4:

E|---------------|-2-------2-3-|-3-------0-------|---------0-------|-
B|-2-2-2-3-3-----|-1-----------|-------0-----3---|-------0-----3---|-
G|-0-------5-----|-2-----------|-----0-----0---0-|-----0-----0---0-|-
D|-2-------4-0-0-|-0-----------|---0-------------|---0-------------|-
A|-1-------0-----|-------------|-----------------|-----------------|-
E|---------------|-------------|-3---------------|-3---------------|-

Stave 5:

E|-----------0-------|-----------2---0-----|-------------------|-
B|-0-0-----------3---|---0-0-----------0-0-|-1-3-1---0-------0-|-
G|-----0---0---0---0-|-2-------0---0-------|-2---------2---2---|-
D|-------0-----------|-2-----2-------------|-------------2-----|-
A|-------------------|---------------------|-0-----0---0-------|-
E|-3-----------------|-0-------------------|-------------------|-

Stave 6:

E|-------------------|-----------0-------|-2----0-0---------0-|-
B|-1-3-1---0---------|-0-0-----------0-3-|-0--------------0---|-
G|-2---------2-------|-0---0---0---0-----|-0--------0---0-----|-
D|-------------0---0-|-------0-----------|------------2-------|-
A|-0-----0-------0---|-------------------|--------------------|-
E|-----------2-------|-3-----------------|-0------------------|-

Stave 7:

E|-3-3-3-3-3-0-------|-----------------|-0-0-------------0-1-|-
B|-1-------1---1-0---|-----------1---1-|-1-------------3-----|-
G|-2-------2-------2-|-2---------2---0-|-0---0---0---0-0-----|-
D|-------------------|---------3---2---|-------2---2---------|-
A|-0-------0---------|---3-0-----------|-3-------------2-----|-
E|-------------3-----|-2-----2---------|---------------------|-

Stave 8:

E|-0-------------0-0-|-1-0-0---------|-------0-0---1-1-3-1-|-|-
B|-1-------0---------|-3-----3-3-----|---3-3---------0-----|-|-
G|-2-2---2-----2-----|-2-----------0-|-0---0---------0-----|-|-
D|-----2-----2-------|-0---0---3-3---|-0-------------------|-|-
A|-0-------0---------|---------3-2---|---------------2-----|-|-
E|-------------------|---------------|-3---3-----3---------|-|-

Stave 9:

E|---0-----0-3-----0-|------------------------|-----0----8---8-|-
B|---1---3---0---3---|-1----------------------|---1---10---8---|-
G|---0-------0-------|-2------0-0-1-3-1---3-1-|-0-----10---9---|-
D|-------------------|-2----------3-----------|-2--------------|-
A|-3---3-----2-2-----|-0----0-----------------|-3--------------|-
E|-------------------|------------1-----1-----|----------------|-

Stave 10:

E|---8---8-|---------0-------|---------0-------|----|-1-0-------3---0-|-
B|-7---6---|-------0-----3---|-------0-----3---|----|---1---3-1-0-----|-
G|-8---7---|-----0-----0---0-|-----0-----0---0-|----|---0-------0-----|-
D|---------|---0-------------|---0-------------|----|-----------------|-
A|---------|-----------------|-----------------|----|-3---3-----2-2---|-
E|---------|-3---------------|-3---------------|----|-----------------|-

Stave 11:

E|-5---5-7-8-5-7-8-|-10-------0-----5----|-3-1-0-1-0---0---------------
B|-5---5-----5-----|-10-----3---6-8------|-0---------3---3-1-3-1-0-1-0-
G|-5---5-----5-----|-10---2--------------|-0---------------------------
D|-----------------|-0--0---0------------|-----------------------------
A|-0-0-0-----0-----|---------------------|-----------------------------
E|-----------------|---------------------|-3---------------------------

Stave 12:

E|--------------|-------------0-1-3-----------0-----|-5---7-8-5-7-8-5-7-8-|-
B|---0----------|-------0-1-3-----0-----0-1-3---6-8-|-5-------5-----5-----|-
G|-2---2-0------|---0-2-----------0-0-2-------------|-5-------5-----5-----|-
D|--------------|-----------------------------------|---------------------|-
A|--------------|-3---------------2-----------------|-0-0-----0-----0-----|-
E|---------3----|-----------------------------------|---------------------|-

Stave 13:

E|-10-----0-1---|-1---6-6-6---|-----------------|-----------------------------|-
B|-10---3---1-3-|-3-------3---|-----------------|-------------------------2-2-|-
G|-10-------2---|---------3-3-|-3---------------|-4-3-3-2-2-3-3-4-4-3-3-2-----|-
D|-0--0---------|-----------3-|-4-4-4-4-4-4-4-4-|-------------------------4---|-
A|----------3---|-1-0---------|-4-4-4-4-4-4-4-4-|-6-4-4-3-3-4-4-6-6-4-4-3-----|-
E|--------------|---------4-3-|-2---------------|-----------------------------|-

Stave 14:

E|-2-----2-------------|-------------0-0-0-0-1-1-|-2-----------------
B|-4-2-2-4-2-2-1-1-2-4-|-3-3-1-3-4-4-------------|-2-2-2-3-2---------
G|-4-3---4-3---2---3-4-|-3---3---2-2-2---2---1-1-|-3-----------------
D|---4-----4---4---4-4-|-3---3---3-3-2---2---3-3-|-4---------4-4-5-4-
A|---------------------|-------------------------|-------------------
E|---------------------|-------------------------|-------------------

Stave 15:

E|-------------|-----2-2-3-2-0-----3-3-3-3-0-------|-4-3-3-2-3-4-3-3-2-|-1-0-0---0-1-1-
B|-2-2-3-2-----|---------------3-2-----------1-----|-------------------|-1-1---4-1-1---
G|-------------|-------------------------0-----2-0-|-5-4---3-4-5-4---3-|-2-0---2-0-2---
D|---------4-4-|-5-4-------------------------------|-------------------|---------------
A|-------------|-----------------------------------|-------------------|-3-3---3-3-3---
E|-------------|-----------------------------------|-------------------|---------------

http://www.guitartabcreator.com
Guitar Tab Creator is intended to store guitar tab created through the tool. It currently does not support in-line text editing. Any text you place in here will be lost. If you need to comment on your tab, please use the "Tab Notes" section located below.