Hercules- not completed

Chords

01234567891011121314151617181920212223
E
B
G
D
A
E
B
0 1 2 3 4 5 6 7 8 9 10 11 12 13 14 15 16 17 18 19 20 21 22 23
(/) Slide Up  (\) Slide Down  (h) Hammer On  (p) Pull Off  (b) Bend (r) Release (v) Vibrato

INTRO: Chords B Bsus E A

E|--2--2--2--2--5--2-----2--2--2--2--5--2-----0--0--0--0-----0--0--0--0--
B|--4--4--4--4--5--4-----4--4--4--4--5--4-----0--0--0--0-----2--2--2--2--
G|--4--4--4--4--4--4-----4--4--4--4--4--4-----1--1--1--1-----2--2--2--2--
D|--4--4--4--4--4--4-----4--4--4--4--4--4-----2--2--2--2-----2--2--2--2--
A|--2--2--2--2--2--2-----2--2--2--2--2--2-----2--2--2--2-----0--0--0--0--
E|--------------------------------------------0--0--0--0-----------------

Verse1: Mainly Bass line with some chords and a little bridge between verses Bridge Chords F# F#sus

E|-----------------------------------------------------------------------------------------------------2--2--2--2--2--2-----2--2--2--2--2--2--------------
B|-----------------------------------------------------------------------------------------------------2--2--2--2--2--2-----2--2--2--2--2--2--------------
G|-----------------------------------------------------------------------------------------------------3--3--3--3--3--3-----3--3--3--3--3--3--------------
D|-----------------------------------------------------------------------------------------------------4--4--4--4--4--4-----4--4--4--4--4--4--------------
A|--------------------------2--2--2--2--------------------------------------2--2--2--2-----------------4--4--4--4--2--4-----4--4--4--4--2--4--------------
E|--2--2--2--2--2--2--2--2--------------0--0--0--0-----2--2--2--2--2--2--2--------------0--0--0--0-----2--2--2--2--2--2-----2--2--2--2--2--2--------------

Verse2:

E|--------------------------------------------------------------------------------------0--0--0--0--------
B|--------------------------------------------------------------------------------------0--0--0--0--------
G|--------------------------------------------------------------------------------------1--1--1--1--------
D|--------------------------------------------------------------------------------------2--2--2--2--------
A|--------------------------2--2--2--2--------------------------------------2--2--2--2--2--2--2--2--------
E|--2--2--2--2--2--2--2--2--------------0--0--0--0--2--2--2--2--2--2--2--2--------------0--0--0--0--------

Chorus Chords: A  A7  E  F#/D  Db5

E|--0--0--0--0--0--0-----0--0--0--0--0--0-----0--0-----2--2-----x--------
B|--2--2--2--2--3--2-----2--2--2--2--3--2-----0--0-----3--3-----3--------
G|--2--2--2--2--2--2-----2--2--2--2--2--2-----1--1-----2--2-----1--------
D|--2--2--2--2--2--2-----2--2--2--2--2--2-----2--2-----0--0-----x--------
A|--0--2--0--2--0--2-----0--2--0--2--0--2-----2--2-----x--x--------------
E|--------------------------------------------0--0-----2--2--------------

Bridge: mainly 2 bars of drums then bass

E|--0------------
B|--2------------
G|--2------------
D|--2------------
A|--0//////------
E|---------------

							http://www.guitartabcreator.com
genre
Instruments
{"strings":[[[2,2,2,2,5,2,".",2,2,2,2,5,2,".",0,0,0,0,".",0,0,0,0],[4,4,4,4,5,4,".",4,4,4,4,5,4,".",0,0,0,0,".",2,2,2,2],[4,4,4,4,4,4,".",4,4,4,4,4,4,".",1,1,1,1,".",2,2,2,2],[4,4,4,4,4,4,".",4,4,4,4,4,4,".",2,2,2,2,".",2,2,2,2],[2,2,2,2,2,2,".",2,2,2,2,2,2,".",2,2,2,2,".",0,0,0,0],[".",".",".",".",".",".",".",".",".",".",".",".",".",".",0,0,0,0,".",".",".",".","."]],[["_",".",".",".",".",".",".",".",".",".",".",".",".",".",".",".",".",".",".",".",".",".",".",".",".",".",".",".",".",".",".",".",".",2,2,2,2,2,2,".",2,2,2,2,2,2,".",".",".","."],["_",".",".",".",".",".",".",".",".",".",".",".",".",".",".",".",".",".",".",".",".",".",".",".",".",".",".",".",".",".",".",".",".",2,2,2,2,2,2,".",2,2,2,2,2,2,".",".",".","."],["_",".",".",".",".",".",".",".",".",".",".",".",".",".",".",".",".",".",".",".",".",".",".",".",".",".",".",".",".",".",".",".",".",3,3,3,3,3,3,".",3,3,3,3,3,3,".",".",".","."],["_",".",".",".",".",".",".",".",".",".",".",".",".",".",".",".",".",".",".",".",".",".",".",".",".",".",".",".",".",".",".",".",".",4,4,4,4,4,4,".",4,4,4,4,4,4,".",".",".","."],["_",".",".",".",".",".",".",".",2,2,2,2,".",".",".",".",".",".",".",".",".",".",".",".",2,2,2,2,".",".",".",".",".",4,4,4,4,2,4,".",4,4,4,4,2,4,".",".",".","."],[2,2,2,2,2,2,2,2,".",".",".",".",0,0,0,0,".",2,2,2,2,2,2,2,".",".",".",".",0,0,0,0,".",2,2,2,2,2,2,".",2,2,2,2,2,2,".",".",".","."]],[["_",".",".",".",".",".",".",".",".",".",".",".",".",".",".",".",".",".",".",".",".",".",".",".",".",".",".",".",0,0,0,0,".","."],["_",".",".",".",".",".",".",".",".",".",".",".",".",".",".",".",".",".",".",".",".",".",".",".",".",".",".",".",0,0,0,0,".","."],["_",".",".",".",".",".",".",".",".",".",".",".",".",".",".",".",".",".",".",".",".",".",".",".",".",".",".",".",1,1,1,1,".","."],["_",".",".",".",".",".",".",".",".",".",".",".",".",".",".",".",".",".",".",".",".",".",".",".",".",".",".",".",2,2,2,2,".","."],["_",".",".",".",".",".",".",".",2,2,2,2,".",".",".",".",".",".",".",".",".",".",".",".",2,2,2,2,2,2,2,2,".","."],[2,2,2,2,2,2,2,2,".",".",".",".",0,0,0,0,2,2,2,2,2,2,2,2,".",".",".",".",0,0,0,0,".","."]],[[0,0,0,0,0,0,".",0,0,0,0,0,0,".",0,0,".",2,2,".","x",".","_"],[2,2,2,2,3,2,".",2,2,2,2,3,2,".",0,0,".",3,3,".",3,".","_"],[2,2,2,2,2,2,".",2,2,2,2,2,2,".",1,1,".",2,2,".",1,".","_"],[2,2,2,2,2,2,".",2,2,2,2,2,2,".",2,2,".",0,0,".","x",".","_"],[0,2,0,2,0,2,".",0,2,0,2,0,2,".",2,2,".","x","x",".",".",".","_"],[".",".",".",".",".",".",".",".",".",".",".",".",".",".",0,0,".",2,2,".",".",".","_"]],[[0,".",".",".",".",".",".",".","."],[2,".",".",".",".",".",".",".","."],[2,".",".",".",".",".",".",".","."],[2,".",".",".",".",".",".",".","."],[0,"/","/","/","/","/","/",".","."],[".",".",".",".",".",".",".",".","."]]],"numberofstrings":6,"notes":["E","B","G","D","A","E","B"],"capo":0,"stringnotes":["E4","B3","G3","D3","A2","E2"],"comments":["INTRO: Chords B Bsus E A","Verse1: Mainly Bass line with some chords and a little bridge between verses Bridge Chords F# F#sus","Verse2:","Chorus Chords: A A7 E F#/D Db5","Bridge: mainly 2 bars of drums then bass"],"timing":[[null,null,null,null,null,null,null,null,null,null,null,null,null,null,null,null,null,null,null,null,null,null,null,null,null,null,null,null,null],[null,"W","W","W","W","W","W","W","W","W","W","W","W","W","W","W","W",null,null,null,null,null,"W","W",null,null,null,null,null,null,null,null,null,null,"W","W","W","W","W","W"],[null,null,null,null,null,null,null,null,null,null,null,null,null,null,null,null,null,null,null,null,null,null,null,null,null,"W",null,null,null,null,null,null,null,null,null,null,null,null,null,"W"],[null,"W",null,null,"W",null,null,null,"W","W",null,"W",null,null,null,null,null,null,null,"W",null,"W",null,null,"W","W","W",null,"W"],[null,"W"]],"timingvisible":false,"tabcounter":10,"stave":1,"totalstaves":5,"instrument":"6guitar","selectedtuning":"6_standard","version":"13"}

Member for

2 months 1 week
Submitted by sa on Tue, 2020-09-22 12:42