rosetta stoned 2

01234567891011121314151617181920212223
E
B
G
D
A
E
B
0 1 2 3 4 5 6 7 8 9 10 11 12 13 14 15 16 17 18 19 20 21 22 23
(/) Slide Up  (\) Slide Down  (h) Hammer On  (p) Pull Off  (b) Bend (r) Release (v) Vibrato

Stave 1:

G|--------------------------------------------------------------------------5--7--5-----------
D|-----------------------------------------------------------------------7-----------7--5-----
A|--------3--5-----------------3--5-----------------3--5--------------8--------------------8--
D|--0--3--------0--8--8--0--3--------0--8--8--0--3--------0--8--8--0--------------------------

Stave 2:

G|----------------------------------------------------------------------------------------------
D|----------------------------------------------------------------------------------------------
A|--------3--5-----------------3--5--------------------12----------15-----------12----------15--
D|--0--3--------0--8--8--0--3--------0--8--8--0--3/12------12--15------0--3/12------12--15------

							http://www.guitartabcreator.com
Chords

Instruments
{"strings":[[[".",".",".",".",".",".",".",".",".",".",".",".",".",".",".",".",".",".",".",".",".",".",".",".",5,7,5,".",".","."],[".",".",".",".",".",".",".",".",".",".",".",".",".",".",".",".",".",".",".",".",".",".",".",7,".",".",".",7,5,"."],[".",".",3,5,".",".",".",".",".",3,5,".",".",".",".",".",3,5,".",".",".",".",8,".",".",".",".",".",".",8],[0,3,".",".",0,8,8,0,3,".",".",0,8,8,0,3,".",".",0,8,8,0,".",".",".",".",".",".",".","."]],[[".",".",".",".",".",".",".",".",".",".",".",".",".",".",".",".",".",".",".",".",".",".",".",".",".",".",".",".",".","."],[".",".",".",".",".",".",".",".",".",".",".",".",".",".",".",".",".",".",".",".",".",".",".",".",".",".",".",".",".","."],[".",".",3,5,".",".",".",".",".",3,5,".",".",".",".",".",".",".",12,".",".",15,".",".",".",".",12,".",".",15],[0,3,".",".",0,8,8,0,3,".",".",0,8,8,0,3,"/",12,".",12,15,".",0,3,"/",12,".",12,15,"."]]],"numberofstrings":4,"notes":["G","D","A","D"],"capo":0,"stringnotes":["G2","D2","A1","D1"],"comments":["Stave 1:","Stave 2:"],"timing":[["W","W","W","W","W","W","W","W","W","W","W","W","W","W","W","W","W","W","W","W","W","W","W","W","W","W","W","W","W","W"],["W","W","W","W","W","W","W","W","W","W","W","W","W","W","W","W","W","W","W","W","W","W","W","W",null,"W","W","W","W","W"]],"timingvisible":false,"tabcounter":30,"stave":1,"totalstaves":2,"instrument":"4bass","selectedtuning":"4bass","version":"13"}

Member for

1 month 1 week
Picture
About Me
im play bass
Submitted by Ryddex on Tue, 2021-01-12 20:37