Amethyst Realm Individual Riffs

Chords

01234567891011121314151617181920212223
E
B
G
D
A
E
B
0 1 2 3 4 5 6 7 8 9 10 11 12 13 14 15 16 17 18 19 20 21 22 23
(/) Slide Up  (\) Slide Down  (h) Hammer On  (p) Pull Off  (b) Bend (r) Release (v) Vibrato

Stave 1:

G|------------------------------
D|-------------2-------------2--
A|--------0h2-----------0h2-----
E|--0--0----------0--0----------

Stave 2:

G|------------------------------
D|-------------2-------------2--
A|--------0h2-----------0h2-----
E|--3--0----------3--0----------

Stave 3:

G|-------------------------------------------------------------------------------------
D|-------------------------------------------------------------------------------------
A|--0--2--3-----3--2--0-----0-----------------0--2--3-----3--2--5-----5--5--3--3p2--0--
E|-----------------------------3--3--0-------------------------------------------------

							http://www.guitartabcreator.com
Instruments
{"strings":[[[".",".",".",".",".",".",".",".",".",".",".","."],[".",".",".",".",".",2,".",".",".",".",".",2],[".",".",0,"h",2,".",".",".",0,"h",2,"."],[0,0,".",".",".",".",0,0,".",".",".","."]],[[".",".",".",".",".",".",".",".",".",".",".","."],[".",".",".",".",".",2,".",".",".",".",".",2],[".",".",0,"h",2,".",".",".",0,"h",2,"."],[3,0,".",".",".",".",3,0,".",".",".","."]],[[".",".",".","_",".",".",".","_",".",".",".",".","_","_",".",".",".","_",".",".",".","_",".",".",".",".",".",".","."],[".",".",".","_",".",".",".","_",".",".",".",".","_","_",".",".",".","_",".",".",".","_",".",".",".",".",".",".","."],[0,2,3,"_",3,2,0,"_",0,".",".",".","_","_",0,2,3,"_",3,2,5,"_",5,5,3,3,"p",2,0],[".",".",".","_",".",".",".","_",".",3,3,0,"_","_",".",".",".","_",".",".",".","_",".",".",".",".",".",".","."]]],"numberofstrings":4,"notes":["G","D","A","E"],"capo":0,"stringnotes":["G2","D2","A1","E1"],"comments":["Stave 1:","Stave 2:","Stave 3:"],"timing":[[null,null,null,null,null,null,null,null,null,null,null,null],[null,null,null,null,null,null,null,null,"W",null,"W","W",null,null],["W","W","W","W","W","W","W",null,"W","W","W","W",null,null,"W","W","W",null,"W","W","W","W","W","W","W","W",null,"W","W"]],"timingvisible":false,"tabcounter":29,"stave":2,"totalstaves":3,"instrument":"4bass","selectedtuning":"4bass","version":"13"}

Member for

1 month 2 weeks
Submitted by ryan.samuelsen… on Sat, 2020-09-12 09:16