Sound will begin in 5 seconds

Van Halen Running with the Devil Solo tab

01234567891011121314151617181920212223
E
B
G
D
A
E
B
0 1 2 3 4 5 6 7 8 9 10 11 12 13 14 15 16 17 18 19 20 21 22 23
(/) Slide Up  (\) Slide Down  (h) Hammer On  (p) Pull Off  (b) Bend (r) Release (v) Vibrato

Stave 1:

E|---------------------------------------------------------------------------------------------------------
B|--------14--15--17--15--15--14----------14----------------12--13--15--13--13--12----------12-------------
G|--2/14--------------------------14----------14------2/12--------------------------12----------12------2--
D|------------------------------------14----------14------------------------------------12----------12-----
A|---------------------------------------------------------------------------------------------------------
E|---------------------------------------------------------------------------------------------------------

Stave 2:

E|--------------------------------17b19--17b19--19--17v------------------------14------15------16------
B|--------14--15--17--15--15--14-------------------------------12--13--15--13------15------16------17--
G|--2/14-------------------------------------------------2/12------------------------------------------
D|-----------------------------------------------------------------------------------------------------
A|-----------------------------------------------------------------------------------------------------
E|-----------------------------------------------------------------------------------------------------

							http://www.guitartabcreator.com
Note:
Guitar Tab Creator is intended to store guitar tab created through the tool. It currently does not support in-line text editing. Any text you place in here will be lost. If you need to comment on your tab, please use the "Tab Notes" section located below.