Knock On Wood Tab

Chords

01234567891011121314151617181920212223
E
B
G
D
A
E
B
0 1 2 3 4 5 6 7 8 9 10 11 12 13 14 15 16 17 18 19 20 21 22 23
(/) Slide Up  (\) Slide Down  (h) Hammer On  (p) Pull Off  (b) Bend (r) Release (v) Vibrato

Stave 1:

E|-----------------------------------------
B|-----------------------------------------
G|-----------------------------------------
D|-----------------------------0-----------
A|-----------------0-----2-----------2-----
E|-----0-----3-----------------------------

Stave 2:

E|--------------------------------------
B|--------------------------------------
G|-----------------------------2--------
D|-----------------2-----4--------------
A|-----2-----5--------------------------
E|--------------------------------------

Stave 3:

E|-----------------------------------------------------
B|-----------------------------------------------------
G|-----------------------------------------------------
D|-----------------------------0-----------------------
A|-----------------0-----2-----------2-----0-----------
E|-----0-----3-----------------------------------3-----

							http://www.guitartabcreator.com
genre
Instruments
{"title":"","strings":[[[".",".",".",".",".","."],[".",".",".",".",".","."],[".",".",".",".",".","."],[".",".",".",".",0,"."],[".",".",0,2,".",2],[0,3,".",".",".","."]],[[".",".",".",".",".","_"],[".",".",".",".",".","_"],[".",".",".",".",2,"_"],[".",".",2,4,".","_"],[2,5,".",".",".","_"],[".",".",".",".",".","_"]],[[".",".",".",".",".",".",".","."],[".",".",".",".",".",".",".","."],[".",".",".",".",".",".",".","."],[".",".",".",".",0,".",".","."],[".",".",0,2,".",2,0,"."],[0,3,".",".",".",".",".",3]]],"numberofstrings":6,"notes":["E","B","G","D","A","E","B"],"capo":0,"stringnotes":["E5","B3","G3","D3","A2","E2"],"comments":["Stave 1:","Stave 2:","Stave 3:","Stave 4:"],"timing":[["W","W","W","W","W","W"],["W","W","W","W","W","W"],["W","W","W","W","W","W","W","W"],["W","W"]],"timingvisible":false,"tabcounter":0,"totalstaves":3,"instrument":"6guitar","selectedtuning":"6_standard","version":"13"}

Member for

1 year 1 month
Submitted by RyanJDMusic on Mon, 2019-09-09 08:33