Sound will begin in 5 seconds

gotta catch em all solo

01234567891011121314151617181920212223
E
B
G
D
A
E
B
0 1 2 3 4 5 6 7 8 9 10 11 12 13 14 15 16 17 18 19 20 21 22 23
Song Science #1: How Pros Use 6 Chords to Write Hit Songs
(/) Slide Up  (\) Slide Down  (h) Hammer On  (p) Pull Off  (b) Bend (r) Release (v) Vibrato

Stave 1:

E|--------------------17b17--15------------------------------------------------------------------------------
B|-------------------------------------------------------------------------------------------15--16--16--18--
G|------------15--14-------------17b17--17p15------15--17p15--------------------------15h17------------------
D|--15p13h15-----------------------------------17-------------17------------------17-------------------------
A|----------------------------------------------------------------15--15--15---------------------------------
E|----------------------------------------------------------------------------18-----------------------------

Stave 2:

E|--------------------------------------------------------15--17--20b20b20b
B|--16--15-----------------15--18--17---------15--18--17-------------------
G|----------15------15h17--------------15h17-------------------------------
D|--------------15---------------------------------------------------------
A|-------------------------------------------------------------------------
E|-------------------------------------------------------------------------

http://www.guitartabcreator.com
Guitar Tab Creator is intended to store guitar tab created through the tool. It currently does not support in-line text editing. Any text you place in here will be lost. If you need to comment on your tab, please use the "Tab Notes" section located below.