Sound will begin in 5 seconds

Bitson 1

Chords
01234567891011121314151617181920212223
E
B
G
D
A
E
B
0 1 2 3 4 5 6 7 8 9 10 11 12 13 14 15 16 17 18 19 20 21 22 23
Song Science #1: How Pros Use 6 Chords to Write Hit Songs
(/) Slide Up  (\) Slide Down  (h) Hammer On  (p) Pull Off  (b) Bend (r) Release (v) Vibrato

Stave 1:

E|---------------------------------------------------
B|---------------------------------------------------
G|---------------------------------------------------
D|--0--x--------4----------5--x--------5----------0--
A|--0--x--5--7-----x--5/7--5--x--5--7-----x--5/7-----
D|--0--x-----------x-------5--x-----------x----------

Stave 2:

E|-----------------------------------------------------------------------------------------------
B|-----------------------------------------------------------------------------------------------
G|--------------------------------------------------------------------------------------7--9--7--
D|--0--0--0--0--0--0--0--0--0--0--0--0--0--0--0--0--2--2--2--2--2--2--2--2--5--5--5--5--x--x--x--
A|--0--0--0--0--0--0--0--0--0--0--0--0--0--0--0--0--2--2--2--2--2--2--2--2--5--5--5--5--5--7--5--
D|--0--0--0--0--0--0--0--0--0--0--0--0--0--0--0--0--2--2--2--2--2--2--2--2--5--5--5--5--x--x--x--

Stave 3:

E|-----------------------------------------------------------------------
B|-----------------------------------x-----------------------------------
G|-----------------------------------------------------------------------
D|--0--0--x--x--x--x--2--2--x--x--x--x--5--5--x--x--x--x--5--5--------0--
A|--0--0--x--x--x--x--2--2--x--x--x--x--5--5--x--x--x--x--5--5--5--7-----
D|--0--0--x--x--x--x--2--2--x--x--x--x--5--5--x--x--x--x--5--5-----------

Stave 4:

E|--------------------------------------------------------------------------------------------------
B|--------------------------------------------------------------------------------------------------
G|-----------9--------9--------------9-----------9-----------7-----------7-----------7-----------7--
D|--------7-----7--------7--------7-----7-----7-----------7-----7-----7-----------7-----7-----7-----
A|--9--9-----------9--------7--7-----------7--------5--5-----------5--------5--5-----------5--------
D|--------------------------------------------------------------------------------------------------

Stave 5:

E|--------------------------------------------
B|--------------------------------------------
G|--------------------------------------------
D|--0-----------4-----4--4--4--5-----5--5--5--
A|--0--x--5--7--4-----4--4--4--5-----5--5--5--
D|--0--x--------4-----4--4--4--5-----5--5--5--

Stave 6:

E|---------------------------------------------
B|---------------------------------------------
G|---------------------------------------------
D|--0--0-------7--7--7--7--7--7--5--5-------0--
A|--0--0--7h9--7--7--7--7--7--7--5--5--5h7--0--
D|--0--0-------7--7--7--7--7--7--5--5-------0--

http://www.guitartabcreator.com
Guitar Tab Creator is intended to store guitar tab created through the tool. It currently does not support in-line text editing. Any text you place in here will be lost. If you need to comment on your tab, please use the "Tab Notes" section located below.