Sound will begin in 5 seconds

song 1.

Chords
01234567891011121314151617181920212223
E
B
G
D
A
E
B
0 1 2 3 4 5 6 7 8 9 10 11 12 13 14 15 16 17 18 19 20 21 22 23
Song Science #1: How Pros Use 6 Chords to Write Hit Songs
(/) Slide Up  (\) Slide Down  (h) Hammer On  (p) Pull Off  (b) Bend (r) Release (v) Vibrato

Stave 1:

E|-----------------------------------------------------------------------------------
B|-----------------------------------------------------------------------------------
G|--------------------------------------------------4--5--4--------------------------
D|-----------4--5--6-----------------------4--5--6-----------4--5--6-----------------
A|--0--4--6-----------5--6--5--3--0--4--6-----------------------------5--6--7--3-----
D|--0-----------------------------0--------------------------------------------------

Stave 2:

E|--------------------------------------------------------------------------------------------------------------
B|--------------------------------------------------------------------------------------------------------------
G|--------------------------------------------------------------------------------------------------------------
D|-----------4--5--6-----------4--3-----2--1-----------3-----------3--2-----------4-----------4--2--2--1--1--2--
A|--0--4--6-----------5--6--3--------4--3--2-----0--2--------0--2-----------1--3--------1--3--------3--2--1-----
D|--0-----------------------------------2--1--0-----------0--------------1-----------1--------------2--1--1-----

Stave 3:

E|-----19-----------------------------------------------------------------------------------------------------
B|---------17-------------------------------------------------------------------------------------------------
G|-------------16---------------------------------------------------------------------------------------------
D|--2--------------------7-----8--------------------------------------------------------1--3--4---------------
A|--3-----------------6-----6-----7--------5--7--4-----15--14----------11--10-----------0--------10--9--------
D|--2--------------5-----------------6--6-----------5----------12--13----------9--8--5--1---------------8--7--

Stave 4:

E|--------------------
B|--------------------
G|-----------------3--
D|-----------2--1--1--
A|-----4--3--------2--
D|--7--------------1--

http://www.guitartabcreator.com
Guitar Tab Creator is intended to store guitar tab created through the tool. It currently does not support in-line text editing. Any text you place in here will be lost. If you need to comment on your tab, please use the "Tab Notes" section located below.