Pentatonic Scale (1st Position)

Chords

01234567891011121314151617181920212223
E
B
G
D
A
E
B
0 1 2 3 4 5 6 7 8 9 10 11 12 13 14 15 16 17 18 19 20 21 22 23
(/) Slide Up  (\) Slide Down  (h) Hammer On  (p) Pull Off  (b) Bend (r) Release (v) Vibrato

Stave 1:

E|--------------------------------0--3--|--3--0--------------------------------|--
B|--------------------------0--3--------|--------3--0--------------------------|--
G|--------------------0--2--------------|--------------2--0--------------------|--
D|--------------0--2--------------------|--------------------2--0--------------|--
A|--------0--2--------------------------|--------------------------2--0--------|--
E|--0--3--------------------------------|--------------------------------3--0--|--

Stave 2:

E|--------------------------------1--4--|--4--1--------------------------------|--
B|--------------------------1--4--------|--------4--1--------------------------|--
G|--------------------1--3--------------|--------------3--1--------------------|--
D|--------------1--3--------------------|--------------------3--1--------------|--
A|--------1--3--------------------------|--------------------------3--1--------|--
E|--1--4--------------------------------|--------------------------------4--1--|--

Stave 3:

E|--------------------------------2--5--|--5--2--------------------------------|--
B|--------------------------2--5--------|--------5--2--------------------------|--
G|--------------------2--4--------------|--------------4--2--------------------|--
D|--------------2--4--------------------|--------------------4--2--------------|--
A|--------2--4--------------------------|--------------------------4--2--------|--
E|--2--5--------------------------------|--------------------------------5--2--|--

Stave 4:

E|--------------------------------3--6--|--6--3--------------------------------|--
B|--------------------------3--6--------|--------6--3--------------------------|--
G|--------------------3--5--------------|--------------5--3--------------------|--
D|--------------3--5--------------------|--------------------5--3--------------|--
A|--------3--5--------------------------|--------------------------5--3--------|--
E|--3--6--------------------------------|--------------------------------6--3--|--

							http://www.guitartabcreator.com
Instruments
{"title":"Pentatonic Scale","strings":[[[".",".",".",".",".",".",".",".",".",".",0,3,"|",3,0,".",".",".",".",".",".",".",".",".",".","|"],[".",".",".",".",".",".",".",".",0,3,".",".","|",".",".",3,0,".",".",".",".",".",".",".",".","|"],[".",".",".",".",".",".",0,2,".",".",".",".","|",".",".",".",".",2,0,".",".",".",".",".",".","|"],[".",".",".",".",0,2,".",".",".",".",".",".","|",".",".",".",".",".",".",2,0,".",".",".",".","|"],[".",".",0,2,".",".",".",".",".",".",".",".","|",".",".",".",".",".",".",".",".",2,0,".",".","|"],[0,3,".",".",".",".",".",".",".",".",".",".","|",".",".",".",".",".",".",".",".",".",".",3,0,"|"]],[[".",".",".",".",".",".",".",".",".",".",1,4,"|",4,1,".",".",".",".",".",".",".",".",".",".","|"],[".",".",".",".",".",".",".",".",1,4,".",".","|",".",".",4,1,".",".",".",".",".",".",".",".","|"],[".",".",".",".",".",".",1,3,".",".",".",".","|",".",".",".",".",3,1,".",".",".",".",".",".","|"],[".",".",".",".",1,3,".",".",".",".",".",".","|",".",".",".",".",".",".",3,1,".",".",".",".","|"],[".",".",1,3,".",".",".",".",".",".",".",".","|",".",".",".",".",".",".",".",".",3,1,".",".","|"],[1,4,".",".",".",".",".",".",".",".",".",".","|",".",".",".",".",".",".",".",".",".",".",4,1,"|"]],[[".",".",".",".",".",".",".",".",".",".",2,5,"|",5,2,".",".",".",".",".",".",".",".",".",".","|"],[".",".",".",".",".",".",".",".",2,5,".",".","|",".",".",5,2,".",".",".",".",".",".",".",".","|"],[".",".",".",".",".",".",2,4,".",".",".",".","|",".",".",".",".",4,2,".",".",".",".",".",".","|"],[".",".",".",".",2,4,".",".",".",".",".",".","|",".",".",".",".",".",".",4,2,".",".",".",".","|"],[".",".",2,4,".",".",".",".",".",".",".",".","|",".",".",".",".",".",".",".",".",4,2,".",".","|"],[2,5,".",".",".",".",".",".",".",".",".",".","|",".",".",".",".",".",".",".",".",".",".",5,2,"|"]],[[".",".",".",".",".",".",".",".",".",".",3,6,"|",6,3,".",".",".",".",".",".",".",".",".",".","|"],[".",".",".",".",".",".",".",".",3,6,".",".","|",".",".",6,3,".",".",".",".",".",".",".",".","|"],[".",".",".",".",".",".",3,5,".",".",".",".","|",".",".",".",".",5,3,".",".",".",".",".",".","|"],[".",".",".",".",3,5,".",".",".",".",".",".","|",".",".",".",".",".",".",5,3,".",".",".",".","|"],[".",".",3,5,".",".",".",".",".",".",".",".","|",".",".",".",".",".",".",".",".",5,3,".",".","|"],[3,6,".",".",".",".",".",".",".",".",".",".","|",".",".",".",".",".",".",".",".",".",".",6,3,"|"]]],"numberofstrings":6,"notes":["E","B","G","D","A","E","B"],"capo":0,"stringnotes":["E4","B3","G3","D3","A2","E2"],"comments":["Stave 1:","Stave 2:","Stave 3:","Stave 4:"],"timing":[["W","W","W","W","W","W","W","W","W","W","W","W",null,"W","W","W","W","W","W","W","W","W","W","W","W"],["W","W","W","W","W","W","W","W","W","W","W","W",null,"W","W","W","W","W","W","W","W","W","W","W","W"],["W","W","W","W","W","W","W","W","W","W","W","W",null,"W","W","W","W","W","W","W","W","W","W","W","W"],["W","W","W","W","W","W","W","W","W","W","W","W",null,"W","W","W","W","W","W","W","W","W","W","W","W"]],"timingvisible":false,"tabcounter":26,"stave":3,"totalstaves":4,"instrument":"6guitar","selectedtuning":"6_standard","version":"13"}

Member for

7 months 1 week
Submitted by Ryan Taylor on Tue, 2020-04-14 00:49