Charlie London Minor Pentatonic Riffs

Chords

01234567891011121314151617181920212223
E
B
G
D
A
E
B
0 1 2 3 4 5 6 7 8 9 10 11 12 13 14 15 16 17 18 19 20 21 22 23
(/) Slide Up  (\) Slide Down  (h) Hammer On  (p) Pull Off  (b) Bend (r) Release (v) Vibrato

Stave 1:

E|--8--5-----------------
B|--------8--5-----------
G|--------------7--5-----
D|--------------------7--
A|-----------------------
E|-----------------------

Stave 2:

E|----------------------
B|----------------------
G|--9--7----------------
D|--------10--7------7--
A|---------------10-----
E|----------------------

Stave 3:

E|--------------------------------
B|--------------------------------
G|--------------------------------
D|--7--5--------7--5--7--5--------
A|--------7--5--------------7--5--
E|--------------------------------

							http://www.guitartabcreator.com
Instruments
{"strings":[[[8,5,".",".",".",".","."],[".",".",8,5,".",".","."],[".",".",".",".",7,5,"."],[".",".",".",".",".",".",7],[".",".",".",".",".",".","."],[".",".",".",".",".",".","."]],[[".",".",".",".",".","."],[".",".",".",".",".","."],[9,7,".",".",".","."],[".",".",10,7,".",7],[".",".",".",".",10,"."],[".",".",".",".",".","."]],[[".",".",".",".",".",".",".",".",".","."],[".",".",".",".",".",".",".",".",".","."],[".",".",".",".",".",".",".",".",".","."],[7,5,".",".",7,5,7,5,".","."],[".",".",7,5,".",".",".",".",7,5],[".",".",".",".",".",".",".",".",".","."]]],"numberofstrings":6,"notes":["E","B","G","D","A","E","B"],"capo":0,"stringnotes":["E4","B3","G3","D3","A2","E2"],"comments":["Stave 1:","Stave 2:","Stave 3:"],"timing":[["W","W","W","W","W","W","W"],["W","W","W","W","W","W"],["W","W","W","W","W","W","W","W","W","W"]],"timingvisible":false,"tabcounter":10,"stave":2,"totalstaves":3,"instrument":"6guitar","selectedtuning":"6_standard","version":"13"}

Member for

3 weeks 4 days
About Me
i plAY GUItar
Submitted by rwatki98 on Mon, 2020-09-14 14:38