Sound will begin in 5 seconds

DarkRide - 100 Ton Hammer - Solo

01234567891011121314151617181920212223
E
B
G
D
A
E
B
0 1 2 3 4 5 6 7 8 9 10 11 12 13 14 15 16 17 18 19 20 21 22 23
Song Science #1: How Pros Use 6 Chords to Write Hit Songs
(/) Slide Up  (\) Slide Down  (h) Hammer On  (p) Pull Off  (b) Bend (r) Release (v) Vibrato

Stave 1:

D|-----------5-----------------
A|--7--5--7-----7--5--0--------
G|-----------------------------
D|-----------------------0--0--
A|-----------------------------
D|-----------------------------

Stave 2:

D|----------10--12--10--12--12b12--10--12--10--12--12b12--10--12--------------
A|--10--12--------------------------------------------------------12--10------
G|----------------------------------------------------------------------------
D|------------------------------------------------------------------------12--
A|----------------------------------------------------------------------------
D|----------------------------------------------------------------------------

Stave 3:

D|----------12--15b15--14--12--14--15b15--14--12--
A|--12--15----------------------------------------
G|------------------------------------------------
D|------------------------------------------------
A|------------------------------------------------
D|------------------------------------------------

Stave 4:

D|------10------12------10------12------10------12--
A|--10------12------10------12------10------12------
G|--------------------------------------------------
D|--------------------------------------------------
A|--------------------------------------------------
D|--------------------------------------------------

Stave 5:

D|--10--12--12--12--10--12--10--12--12b10--12--
A|---------------------------------------------
G|---------------------------------------------
D|---------------------------------------------
A|---------------------------------------------
D|---------------------------------------------

http://www.guitartabcreator.com
Guitar Tab Creator is intended to store guitar tab created through the tool. It currently does not support in-line text editing. Any text you place in here will be lost. If you need to comment on your tab, please use the "Tab Notes" section located below.