Terminaator - 13

Chords

01234567891011121314151617181920212223
E
B
G
D
A
E
B
0 1 2 3 4 5 6 7 8 9 10 11 12 13 14 15 16 17 18 19 20 21 22 23
(/) Slide Up  (\) Slide Down  (h) Hammer On  (p) Pull Off  (b) Bend (r) Release (v) Vibrato

Stave 1:

E|------------------------------------------------------------------------------------7--
B|---------------------------------------------------------------------------------7-----
G|--2/4--7--6--4-------------------------------------------7--------------------7--------
D|----------------7--2/4-----4-----4--7--5-----5--4--5--7--------7--6--7--8--9-----------
A|------------------------------7--------------------------------------------------------
E|---------------------------------------------------------------------------------------

Stave 2:

E|-----------------------------------------------------------------------------------------------
B|-----------------------------------------------------------------------10-----------7b8--5-----
G|--2/7--7--6-------7--6--------7--6----------------7--6--7--9--9/11--9------6--7-------------7--
D|-------------7h9--------7-----------9--7/9--9--------------------------------------------------
A|-----------------------------------------------------------------------------------------------
E|-----------------------------------------------------------------------------------------------

Stave 3:

E|------------------------------------------------------------------------------------------
B|--7b8-------------------------14------14h15------14---------14------14h15--14-------------
G|-------7/9--9--11--12-----14------14---------14---------14------14-------------14--14h16--
D|------------------------------------------------------------------------------------------
A|------------------------------------------------------------------------------------------
E|------------------------------------------------------------------------------------------

Stave 4:

E|--------------------------3-----------------------------------------------------------2--------2--
B|--------3--------------------------------------------------------------------------------2--------
G|-----------4-----4-----------4-----4--------------0--------0--------3--------3--------------0-----
D|--------------4-----------------4--------------------0-----------------4--------------------------
A|--2--2--------------2--2--------------------------------2-----------------4-----------------------
E|--------------------------------------------3--3--------------2--2--------------------------------

Stave 5:

E|--------2--------------------------------------------------------
B|-----------3-----3-----------2--------2--------------------------
G|--------------2-----------------2--------------------4--------4--
D|--0--0-----------------2--2--------2--------------------5--------
A|-----------------------------------------------------------------
E|-----------------------------------------------3--3--------3-----

							http://www.guitartabcreator.com
Instruments
{"title":"Terminaator - 13","strings":[[[".",".",".",".",".",".",".",".",".",".","_",".",".",".",".",".","_",".",".",".",".",".","_",".",".",".",".",".",".",".",7],[".",".",".",".",".",".",".",".",".",".","_",".",".",".",".",".","_",".",".",".",".",".","_",".",".",".",".",".",".",7,"."],[2,"/",4,7,6,4,".",".",".",".","_",".",".",".",".",".","_",".",".",".",".",7,"_",".",".",".",".",".",7,".","."],[".",".",".",".",".",".",7,2,"/",4,"_",4,".",4,7,5,"_",5,4,5,7,".","_",7,6,7,8,9,".",".","."],[".",".",".",".",".",".",".",".",".",".","_",".",7,".",".",".","_",".",".",".",".",".","_",".",".",".",".",".",".",".","."],[".",".",".",".",".",".",".",".",".",".","_",".",".",".",".",".","_",".",".",".",".",".","_",".",".",".",".",".",".",".","."]],[[".",".",".",".",".",".",".",".",".",".",".","_",".",".",".",".",".",".",".","_",".",".",".",".",".",".",".",".",".",".",".","_",".",".",".",".","."],[".",".",".",".",".",".",".",".",".",".",".","_",".",".",".",".",".",".",".","_",".",".",".",".",".",".",".",".",10,".",".","_",7,"b",8,5,"."],[2,"/",7,7,6,".",".",".",7,6,".","_",7,6,".",".",".",".",".","_",7,6,7,9,9,"/",11,9,".",6,7,"_",".",".",".",".",7],[".",".",".",".",".",7,"h",9,".",".",7,"_",".",".",9,7,"/",9,9,"_",".",".",".",".",".",".",".",".",".",".",".","_",".",".",".",".","."],[".",".",".",".",".",".",".",".",".",".",".","_",".",".",".",".",".",".",".","_",".",".",".",".",".",".",".",".",".",".",".","_",".",".",".",".","."],[".",".",".",".",".",".",".",".",".",".",".","_",".",".",".",".",".",".",".","_",".",".",".",".",".",".",".",".",".",".",".","_",".",".",".",".","."]],[[".",".",".",".",".",".",".",".",".","_",".",".",".",".",".",".",".",".","_",".",".",".",".",".",".",".",".",".",".","."],[7,"b",8,".",".",".",".",".",".","_",".",14,".",14,"h",15,".",14,"_",".",14,".",14,"h",15,14,".",".",".","."],[".",".",".",7,"/",9,9,11,12,"_",14,".",14,".",".",".",14,".","_",14,".",14,".",".",".",".",14,14,"h",16],[".",".",".",".",".",".",".",".",".","_",".",".",".",".",".",".",".",".","_",".",".",".",".",".",".",".",".",".",".","."],[".",".",".",".",".",".",".",".",".","_",".",".",".",".",".",".",".",".","_",".",".",".",".",".",".",".",".",".",".","."],[".",".",".",".",".",".",".",".",".","_",".",".",".",".",".",".",".",".","_",".",".",".",".",".",".",".",".",".",".","."]],[[".",".",".",".",".",".",".",".",3,".",".",".","_","_",".",".",".",".",".",".",".",".",".",".",".",".","_","_",2,".",".",2],[".",".",3,".",".",".",".",".",".",".",".",".","_","_",".",".",".",".",".",".",".",".",".",".",".",".","_","_",".",2,".","."],[".",".",".",4,".",4,".",".",".",4,".",4,"_","_",".",".",0,".",".",0,".",".",3,".",".",3,"_","_",".",".",0,"."],[".",".",".",".",4,".",".",".",".",".",4,".","_","_",".",".",".",0,".",".",".",".",".",4,".",".","_","_",".",".",".","."],[2,2,".",".",".",".",2,2,".",".",".",".","_","_",".",".",".",".",2,".",".",".",".",".",4,".","_","_",".",".",".","."],[".",".",".",".",".",".",".",".",".",".",".",".","_","_",3,3,".",".",".",".",2,2,".",".",".",".","_","_",".",".",".","."]],[[".",".",2,".",".",".","_",".",".",".",".",".",".","_","_",".",".",".",".",".","."],[".",".",".",3,".",3,"_",".",".",2,".",".",2,"_","_",".",".",".",".",".","."],[".",".",".",".",2,".","_",".",".",".",2,".",".","_","_",".",".",4,".",".",4],[0,0,".",".",".",".","_",2,2,".",".",2,".","_","_",".",".",".",5,".","."],[".",".",".",".",".",".","_",".",".",".",".",".",".","_","_",".",".",".",".",".","."],[".",".",".",".",".",".","_",".",".",".",".",".",".","_","_",3,3,".",".",3,"."]]],"numberofstrings":6,"notes":["E","B","G","D","A","E","B"],"capo":0,"stringnotes":["E4","B3","G3","D3","A2","E2"],"comments":["Stave 1:","Stave 2:","Stave 3:","Stave 4:","Stave 5:"],"timing":[["W",null,"W","W","W","W","W","W",null,"W","W","W","W","W","W","W",null,"W","W","W","W","W","W","W","W","W","W","W","W","W","W","W","W"],["W",null,"W","W","W","W",null,"W","W","W","W",null,"W","W","W","W",null,"W","W",null,"W","W","W","W","W","W","W","W","W","W","W",null,"W","W","W","W","W"],["W",null,"W","W","W","W","W","W","W","W","W","W","W","W","W","W","W","W","W","W","W","W","W","W","W","W","W","W","W","W","W"],["W","W","W","W","W","W","W","W","W","W","W","W",null,null,"W","W","W","W","W","W","W","W","W","W","W","W",null,null,"W","W","W","W"],["W","W","W","W","W","W",null,"W","W","W","W","W","W",null,null,"W","W","W","W","W","W"]],"timingvisible":false,"tabcounter":21,"stave":4,"totalstaves":5,"instrument":"6guitar","selectedtuning":"6_standard","version":"13"}

Member for

3 years 7 months
Submitted by runerool on Fri, 2017-12-15 12:34