Spooky

Chords

01234567891011121314151617181920212223
E
B
G
D
A
E
B
0 1 2 3 4 5 6 7 8 9 10 11 12 13 14 15 16 17 18 19 20 21 22 23
(/) Slide Up  (\) Slide Down  (h) Hammer On  (p) Pull Off  (b) Bend (r) Release (v) Vibrato

Stave 1:

E|----------------------15--20--15-----------------------------------------15--16--15------------------
B|------------------16--------------16---------------------------------16--------------16--------------
G|--------------15----------------------15-------------------------16----------------------16----------
D|----------17------------------------------17-----------------17------------------------------17------
A|--15--18--------------------------------------18-----15--18--------------------------------------15--
E|-----------------------------------------------------------------------------------------------------

Stave 2:

E|--------------------------16--14h15h16p15p14-----------------------------------------------------16--
B|----------------------18----------------------15--12-----------------------------------------15------
G|--------------16--19---------------------------------------------------------11--10--11--16----------
D|----------15------------------------------------------------------12--9--12--------------------------
A|--14--17----------------------------------------------11--10--11-------------------------------------
E|-----------------------------------------------------------------------------------------------------

Stave 3:

E|--15--
B|--13--
G|--13--
D|------
A|------
E|------

							http://www.guitartabcreator.com
Instruments
{"title":"Spooky","strings":[[[".",".",".",".",".",15,20,15,".",".",".",".","_",".",".",".",".",".",15,16,15,".",".",".","."],[".",".",".",".",16,".",".",".",16,".",".",".","_",".",".",".",".",16,".",".",".",16,".",".","."],[".",".",".",15,".",".",".",".",".",15,".",".","_",".",".",".",16,".",".",".",".",".",16,".","."],[".",".",17,".",".",".",".",".",".",".",17,".","_",".",".",17,".",".",".",".",".",".",".",17,"."],[15,18,".",".",".",".",".",".",".",".",".",18,"_",15,18,".",".",".",".",".",".",".",".",".",15],[".",".",".",".",".",".",".",".",".",".",".",".","_",".",".",".",".",".",".",".",".",".",".",".","."]],[[".",".",".",".",".",".",16,14,"h",15,"h",16,"p",15,"p",14,".",".",".",".",".",".",".",".",".",".",".",".",".",16],[".",".",".",".",".",18,".",".",".",".",".",".",".",".",".",".",15,12,".",".",".",".",".",".",".",".",".",".",15,"."],[".",".",".",16,19,".",".",".",".",".",".",".",".",".",".",".",".",".",".",".",".",".",".",".",11,10,11,16,".","."],[".",".",15,".",".",".",".",".",".",".",".",".",".",".",".",".",".",".",".",".",".",12,9,12,".",".",".",".",".","."],[14,17,".",".",".",".",".",".",".",".",".",".",".",".",".",".",".",".",11,10,11,".",".",".",".",".",".",".",".","."],[".",".",".",".",".",".",".",".",".",".",".",".",".",".",".",".",".",".",".",".",".",".",".",".",".",".",".",".",".","."]],[[15],[13],[13],["."],["."],["."]]],"numberofstrings":6,"notes":["E","B","G","D","A","E","B"],"capo":0,"stringnotes":["E4","B3","G3","D3","A2","E2"],"comments":["Stave 1:","Stave 2:","Stave 3:"],"timing":[["W","W","W","W","W","W","W","W","W","W","W","W",null,"W","W","W","W","W","W","W","W","W","W","W","W"],["W","W","W","W","W","W","W","W",null,"W",null,"W",null,"W",null,"W","W","W","W","W","W","W","W","W","W","W","W","W","W","W","W"],["W"]],"timingvisible":false,"tabcounter":0,"stave":2,"totalstaves":3,"instrument":"6guitar","selectedtuning":"6_standard","version":"13"}

Member for

3 years 7 months
Submitted by runerool on Sun, 2018-06-03 05:32