Sound will begin in 5 seconds

Like someone in love

Chords
01234567891011121314151617181920212223
E
B
G
D
A
E
B
0 1 2 3 4 5 6 7 8 9 10 11 12 13 14 15 16 17 18 19 20 21 22 23
(/) Slide Up  (\) Slide Down  (h) Hammer On  (p) Pull Off  (b) Bend (r) Release (v) Vibrato

Stave 1:

E|--6--6-----4--3-----11--10--------8-----------------------------------15--13---------13--
B|--8-----8--6--5-----9---9---------7-----11--11-----11--11-----11--11--15--12---------13--
G|--6--------5--------10--10--------8-----10----------------------------15--12---------13--
D|--8-----------------10--8------6--6-----12----------------------------13--11---------13--
A|----------------------------------------10--------------------------------12-----11------
E|-----------------------------------------------------------------------------------------

Stave 2:

E|--12--13--15--13--12-----10-----------------------
B|----------13--13--10---------8---8--8--9--10--11--
G|----------14--14--10---------9---9--9-----8---10--
D|----------12--12--9----------10--9--7-----10--12--
A|------------------10----------------------8---10--
E|--------------------------------------------------

							http://www.guitartabcreator.com
Note:
Guitar Tab Creator is intended to store guitar tab created through the tool. It currently does not support in-line text editing. Any text you place in here will be lost. If you need to comment on your tab, please use the "Tab Notes" section located below.