Sõjalaul

Chords

01234567891011121314151617181920212223
E
B
G
D
A
E
B
0 1 2 3 4 5 6 7 8 9 10 11 12 13 14 15 16 17 18 19 20 21 22 23
(/) Slide Up  (\) Slide Down  (h) Hammer On  (p) Pull Off  (b) Bend (r) Release (v) Vibrato

Stave 1:

E|------------------------5--5-------------------------------------------------------------------------
B|-----7--5h7p5-----8--7--------------7--5h7p5-----5--5--------7--5h7p5-----8--7--5-----7--5-----------
G|--7------------7-----------------7------------7-----------7------------7-----------7--------6--7--7--
D|-----------------------------------------------------------------------------------------------------
A|-----------------------------------------------------------------------------------------------------
E|-----------------------------------------------------------------------------------------------------

Stave 2:

E|--0-----------------------
B|--3-----------------------
G|--2--------/7p5-----------
D|--0--------------7--5--7--
A|--0-----------------------
E|--------------------------

							http://www.guitartabcreator.com
Instruments
{"title":"Sõjalaul","strings":[[[".",".",".",".",".",".",".",".",".",".",5,5,"_",".",".",".",".",".",".",".",".",".",".","_",".",".",".",".",".",".",".",".",".",".",".",".",".",".",".",".","."],[".",7,5,"h",7,"p",5,".",8,7,".",".","_",".",7,5,"h",7,"p",5,".",5,5,"_",".",7,5,"h",7,"p",5,".",8,7,5,".",7,5,".",".","."],[7,".",".",".",".",".",".",7,".",".",".",".","_",7,".",".",".",".",".",".",7,".",".","_",7,".",".",".",".",".",".",7,".",".",".",7,".",".",6,7,7],[".",".",".",".",".",".",".",".",".",".",".",".","_",".",".",".",".",".",".",".",".",".",".","_",".",".",".",".",".",".",".",".",".",".",".",".",".",".",".",".","."],[".",".",".",".",".",".",".",".",".",".",".",".","_",".",".",".",".",".",".",".",".",".",".","_",".",".",".",".",".",".",".",".",".",".",".",".",".",".",".",".","."],[".",".",".",".",".",".",".",".",".",".",".",".","_",".",".",".",".",".",".",".",".",".",".","_",".",".",".",".",".",".",".",".",".",".",".",".",".",".",".",".","."]],[[0,"_","_",".",".",".",".",".",".","."],[3,"_","_",".",".",".",".",".",".","."],[2,"_","_","/",7,"p",5,".",".","."],[0,"_","_",".",".",".",".",7,5,7],[0,"_","_",".",".",".",".",".",".","."],[".","_","_",".",".",".",".",".",".","."]]],"numberofstrings":6,"notes":["E","B","G","D","A","E","B"],"capo":0,"stringnotes":["E4","B3","G3","D3","A2","E2"],"comments":["Stave 1:","Stave 2:"],"timing":[["W","W","W",null,"W",null,"W","W","W","W","W","W",null,"W","W","W",null,"W",null,"W","W","W","W",null,"W","W","W","W","W","W","W","W","W","W","W","W","W","W","W","W","W"],["W","W","W",null,"W",null,"W","W","W","W"]],"timingvisible":false,"tabcounter":10,"stave":1,"totalstaves":2,"instrument":"6guitar","selectedtuning":"6_standard","version":"13"}

Member for

3 years 7 months
Submitted by runerool on Sun, 2018-01-28 07:15