Snow

Chords

01234567891011121314151617181920212223
E
B
G
D
A
E
B
0 1 2 3 4 5 6 7 8 9 10 11 12 13 14 15 16 17 18 19 20 21 22 23
(/) Slide Up  (\) Slide Down  (h) Hammer On  (p) Pull Off  (b) Bend (r) Release (v) Vibrato

Stave 1:

E|------------------------------------------------------------------------------------------------------
B|------------------------------------------------------------------------------------------------------
G|------------------------------------------------------------------------------------------------------
D|----------5--7--5--7--5--7--5--5/7\5-----5--2-------------------------------------5-7-----3/5---------
A|--5--5h7---------------------------------------5--3--5/7--------------------3--5--5/7--3--3-5--2h3p2--
E|----------------------------------------------------------5--5--5-----3--5----------------------------

Stave 2:

E|------------------------------------------------------------------------------------------
B|--------8--8/10/10--8--10--8--10--8--8/10--8-----8h10p8-----8-----------------------------
G|--7--9---------------------------------------------------9-----9--7\5/7h9--------7--9-----
D|---------------------------------------------------------------------------7--9--------9--
A|---------------------------------------------------------------------------------------9--
E|------------------------------------------------------------------------------------------

							http://www.guitartabcreator.com
Instruments
{"title":"","strings":[[[".",".",".",".",".",".",".",".",".",".",".",".",".",".",".",".","_",".",".",".",".",".",".",".",".",".",".","_",".",".",".",".",".",".",".",".",".",".",".",".",".",".",".","."],[".",".",".",".",".",".",".",".",".",".",".",".",".",".",".",".","_",".",".",".",".",".",".",".",".",".",".","_",".",".",".",".",".",".",".",".",".",".",".",".",".",".",".","."],[".",".",".",".",".",".",".",".",".",".",".",".",".",".",".",".","_",".",".",".",".",".",".",".",".",".",".","_",".",".",".",".",".",".",".",".",".",".",".",".",".",".",".","."],[".",".",".",".",5,7,5,7,5,7,5,5,"/",7,"\\",5,"_",5,2,".",".",".",".",".",".",".",".","_",".",".",".",".",5,".",7,".",3,"/",5,".",".",".",".","."],[5,5,"h",7,".",".",".",".",".",".",".",".",".",".",".",".","_",".",".",5,3,5,"/",7,".",".",".","_",".",".",3,5,5,"/",7,3,3,".",5,2,"h",3,"p",2],[".",".",".",".",".",".",".",".",".",".",".",".",".",".",".",".","_",".",".",".",".",".",".",".",5,5,5,"_",3,5,".",".",".",".",".",".",".",".",".",".",".",".",".","."]],[[".",".",".",".",".",".",".",".",".",".",".",".",".",".",".",".",".","_",".",".",".",".",".",".",".",".",".",".",".",".",".",".",".",".",".",".",".","."],[".",".",8,8,"/",10,"/",10,8,10,8,10,8,8,"/",10,8,"_",8,"h",10,"p",8,".",8,".",".",".",".",".",".",".",".",".",".",".",".","."],[7,9,".",".",".",".",".",".",".",".",".",".",".",".",".",".",".","_",".",".",".",".",".",9,".",9,7,"\\",5,"/",7,"h",9,".",".",7,9,"."],[".",".",".",".",".",".",".",".",".",".",".",".",".",".",".",".",".","_",".",".",".",".",".",".",".",".",".",".",".",".",".",".",".",7,9,".",".",9],[".",".",".",".",".",".",".",".",".",".",".",".",".",".",".",".",".","_",".",".",".",".",".",".",".",".",".",".",".",".",".",".",".",".",".",".",".",9],[".",".",".",".",".",".",".",".",".",".",".",".",".",".",".",".",".","_",".",".",".",".",".",".",".",".",".",".",".",".",".",".",".",".",".",".",".","."]]],"numberofstrings":6,"notes":["E","B","G","D","A","E","B"],"capo":0,"stringnotes":["E4","B3","G3","D3","A2","E2"],"comments":["Stave 1:","Stave 2:"],"timing":[["W","W",null,"W","W","W","W","W","W","W","W","W","W","W","W","W",null,"W","W","W","W","W","W","W","W","W","W","W","W","W","W","W","W","W","W","W","W","W","W","W","W","W","W","W","W"],["W","W","W","W","W","W",null,"W","W","W","W","W","W","W","W","W","W",null,"W",null,"W",null,"W","W","W","W","W",null,"W",null,"W",null,"W","W","W","W","W","W"]],"timingvisible":false,"tabcounter":37,"stave":1,"totalstaves":2,"instrument":"6guitar","selectedtuning":"6_standard","version":"13"}

Member for

3 years 7 months
Submitted by runerool on Sun, 2018-02-11 04:41