sight

Chords

01234567891011121314151617181920212223
E
B
G
D
A
E
B
0 1 2 3 4 5 6 7 8 9 10 11 12 13 14 15 16 17 18 19 20 21 22 23
(/) Slide Up  (\) Slide Down  (h) Hammer On  (p) Pull Off  (b) Bend (r) Release (v) Vibrato

Stave 1:

E|--------------------------------------------|--------------------------------------------|--
B|--------8---------12--------0-----------12--|--------8---------12--------0---------------|--
G|-----------9-------------------2--5---------|-----------9-------------------2--5-----12--|--
D|-----9-------------------0-----------5------|-----9-------------------0-----------5------|--
A|--------------------------------------------|--------------------------------------------|--
E|--8-----------10------3---------------------|--8-----------10------3---------------------|--

Stave 2:

E|--------------------------------------
B|--------8---------12-----------0--12--
G|-----------9----------------2-----12--
D|-----9-------------------0--------12--
A|--------------------------------------
E|--8-----------10------3---------------

							http://www.guitartabcreator.com
Instruments
{"title":"","strings":[[[".",".",".",".",".",".",".",".",".",".",".",".",".","|",".",".",".",".",".",".",".",".",".",".",".",".",".","|"],[".",".",8,".",".",12,".",".",0,".",".",".",12,"|",".",".",8,".",".",12,".",".",0,".",".",".",".","|"],[".",".",".",9,".",".",".",".",".",2,5,".",".","|",".",".",".",9,".",".",".",".",".",2,5,".",12,"|"],[".",9,".",".",".",".",".",0,".",".",".",5,".","|",".",9,".",".",".",".",".",0,".",".",".",5,".","|"],[".",".",".",".",".",".",".",".",".",".",".",".",".","|",".",".",".",".",".",".",".",".",".",".",".",".",".","|"],[8,".",".",".",10,".",3,".",".",".",".",".",".","|",8,".",".",".",10,".",3,".",".",".",".",".",".","|"]],[[".",".",".",".",".",".",".",".",".",".","."],[".",".",8,".",".",12,".",".",".",0,12],[".",".",".",9,".",".",".",".",2,".",12],[".",9,".",".",".",".",".",0,".",".",12],[".",".",".",".",".",".",".",".",".",".","."],[8,".",".",".",10,".",3,".",".",".","."]]],"numberofstrings":6,"notes":["E","B","G","D","A","E","B"],"capo":0,"stringnotes":["E4","B3","G3","D3","A2","E2"],"comments":["Stave 1:","Stave 2:"],"timing":[["W","W","W","W","W","W","W","W","W","W","W","W","W",null,"W","W","W","W","W","W","W","W","W","W","W","W","W"],["W","W","W","W","W","W","W","W","W","W","W","W","W"]],"timingvisible":false,"tabcounter":10,"stave":1,"totalstaves":2,"instrument":"6guitar","selectedtuning":"6_standard","version":"13"}

Member for

3 years 7 months
Submitted by runerool on Thu, 2018-11-29 12:14