Sound will begin in 5 seconds

For a second I thought

Chords
01234567891011121314151617181920212223
E
B
G
D
A
E
B
0 1 2 3 4 5 6 7 8 9 10 11 12 13 14 15 16 17 18 19 20 21 22 23
(/) Slide Up  (\) Slide Down  (h) Hammer On  (p) Pull Off  (b) Bend (r) Release (v) Vibrato

Stave 1:

E|------------------------------------------------------------------------5--5----------
B|------------------------------------------------------------------------5--5----------
G|--7--7--7-----6--6--6--6--6-----12--12--12-----11--11--11--11-----------7--6--12--11--
D|--0--0--0-----0--0--0--0--0-----0---0---0------0---0---0---0------------0--0--12--0---
A|--0--0--0-----0--0--0--0--0-----10--10--10-----9---9---9---9------------0--0--10--9---
E|--------------------------------10--10--10-----10--10--10--10-----------------10--10--

Stave 2:

E|-------------5-----------------10-------------10---------10--10--5--5--
B|-----7p5-----------7p5-------------10-------------10-----10--10--5--5--
G|----------7-----7----------12-------------11-------------12--11--9--7--
D|--0---------------------0--------------0-------------------------------
A|-----------------------------------------------------------------------
E|-----------------------------------------------------------------------

Stave 3:

E|----------------------------------------
B|----------------------------------------
G|--7--6--4--6--2--4-----7--6--9--12--11--
D|--0--0--0--0--0--0-----0--0--0--0---0---
A|----------------------------------------
E|----------------------------------------

Stave 4:

E|--
B|--
G|--
D|--
A|--
E|--

							http://www.guitartabcreator.com
Note:
Guitar Tab Creator is intended to store guitar tab created through the tool. It currently does not support in-line text editing. Any text you place in here will be lost. If you need to comment on your tab, please use the "Tab Notes" section located below.